» » »

H-Blockx, Little Girl Tabs (ver.1)

Artists:  A B C D E F G H I J K L M N O P Q R S T U V W X Y Z # 

Little Girl Tabs (ver.1)

H-Blockx Tabs
 Rating:
4/5 (4 votes)
Little Girl lessons Tabs too difficult? Try these video lessons and learn fast
                H-Blockx - Little Girl


Standard Tuning


Intro/Fill
                                     3x
e--------------------------------------|----------------------|
B---------5------------5---------------|---------5------------|
G--------------7-5-7-----5-------------|--------------7-5-4---|
D--7--7---------------------7----7-5---|--7--7----------------|
A--------------------------------------|----------------------|
E--------------------------------------|----------------------|


Main Riff

e--------------------------------------|---------------------------------|
B------8-----8-----8---x-x---7-7---5---|------8-----8-----8---x-x--------|
G------9-----9-----9---x-x---7-7---5---|------9-----9-----9---x-x--------|
D------9-----9-----9---x-x---7-7---5---|------9-----9-----9---x-x-10-9---|
A--------------------------------------|--------------------------10-9---|
E--0-0---------0-0---------------------|--0-0---------0-0---------8--7---|


Chorus
      1x                          3x
e-------|---------------------------|-------------|
B-------|---------------------------|-------------|
G-------|-2-2--5---------2--2-------|-2-2--5--4---|
D-3--2--|-2-2--5----5----2--2-------|-2-2--5--4---|
A-3--2--|-0-0--3----5----0--0--3b---|-0-0--3--2---|
E-1--0--|-----------3---------------|-------------|


Fill
                                3x
e---------------------------------|--------------------------------------|
B---------------------------------|---------5------------5---------------|
G-----0---------0-----------0-----|--------------7-5-7-----5-------------|
D---2---2-----2---2-------4---4---|--7--7---------------------7----7-5---|
A-0---------3---------3/5---------|--------------------------------------|
E---------------------------------|--------------------------------------|


Then the Chorus. After the 4th repeat, the Chorus goes higher

e-------------------|
B-------------------|
G--4-4--7-------4---|
D--4-4--7---7---4---|
A--2-2--5---7---2---|
E-----------5-------|


End

e-------------|
B-------------|
G-------------|
D--7/10--12---|
A--7/10--12---|
E--5/8---10---|
            
Submit corrections

comments powered by Disqus
↑ Back to top | H-Blockx Tabs for Little Girl. Lyrics for acoustic guitar and electric guitar. Tablatures and chords are parodies/interpretations of the original songs. You may use it for private study, scholarship, research or language learning purposes only