» » »

H-Blockx, Little Girl Bass tabs (ver.1)

Artists:  A B C D E F G H I J K L M N O P Q R S T U V W X Y Z # 

Little Girl Bass tabs (ver.1)

H-Blockx Tabs
 Rating:
4/5 (4 votes)
Little Girl lessons Tabs too difficult? Try these video lessons and learn fast
                H-BLOCKX;                                                      29/5/99
SONG; LITTLE GIRL/BASS
MUSIC; GUDZE & TIM
LYRICS; H WEHLAND
ALBUM; TIME TO MOVE
/= SLIDE

PLAY THIS IN THE INTRO AND IN THE CHORUS

G]--------------------------
D]-----------------------5--     x3
A]-----3-33-----5-5--5-7----
E]-3/5------3-3-------------

G]----------------------------
D]----------------------------  x1
A]------3-33------------------
E]--3/5------7-7-7-7-7-7-7-7--


PLAY THIS DURING THE VERSE

G]-----------------------------------------------
D]-----------------------------------------------   x4
A]-----------7-10---------------------7-10-------
E]--0-0--0-0-------10-10--8--0-0--0-0------8-7---

ADD THIS ON THE END ON THE FOURTH TIME 
G]----------------------
D]----------------------
A]----------------------
E]--5--5--5--5--3-3-3-3-


PLAY THIS DURING THE BASS SOLO

G]-------------------------------------------------
D]---------------------------10-12----10-12----12--
A]---------------------10-12-------10-------10-----
E]--0-0---10-12--10-12-----------------------------

G]------------------------------------------
D]---------------------------10-12----------
A]---------------------10-12-------10-------
E]--0-0---10-12--10-12-----------------8--7-


PLAY THIS DURING THE BRIDGE

G]----------------------------
D]--------------4--5--4-------    PLAY 8x
A]--0---3---3-5---------5--3--
E]----------------------------


PLAY THIS DURING THE LAST HALF OF THE LAST CHORUS
G]--------------------------
D]-----------------------7--
A]-----5-55-----7-7--7-9----
E]-5/7------5-5-------------
            
Submit corrections

comments powered by Disqus
↑ Back to top | H-Blockx Bass for Little Girl. Lyrics for acoustic guitar and electric guitar. Tablatures and chords are parodies/interpretations of the original songs. You may use it for private study, scholarship, research or language learning purposes only