» » »

H-Blockx, I Heard Him Cry Bass tabs (ver.1)

Artists:  A B C D E F G H I J K L M N O P Q R S T U V W X Y Z # 

I Heard Him Cry Bass tabs (ver.1)

H-Blockx Tabs
 Rating:
4/5 (4 votes)
I Heard Him Cry lessons Tabs too difficult? Try these video lessons and learn fast
1
                

intro (0:36) 4x
G--------------------------------------------------I
D--------------------------------------------------I 
A--------------------------------------------------I
E-0-2-2-0-2---2-2-0-2-----0-2-2-0-2---2-2-0-2--0-3-I 
 
verse (1:02)                        
G----------------------I        I------------------I
D----------------------I 15x    I------------------I
A----------------------I        I------------------I
E-0-2-2-0-2---2-2-0-2--I        I-0222222222222222-I    
	
bridge	(1:52)	      
G---------------------------------I
D---------------------------------I
A-5--4--2-------------------------I
E----------5-4-2-0000000000000000-I

refrain (1:59) 4x 
G----------------------------------I
D----------------------------------I 
A---------55555555-----------------I
E-22222222--------0000000055544454-I 

intro (2:24) 2x
verse (2:36)

bridge II (3:27)
G---------------------------------I
D---------------------------------I
A-5--5--5--5--55------------------I
E----------------0000000000000000-I

refrain (3:33) 2x

refrain-variation (3:46) 
G----------------------------------I
D-44444467-------------------------I 
A---------5555555577777777---------I
E-------------------------55544454-I

refrain (3:52) 1x

bridge III (3:58)
G-----------------444----------------------I
D---------44466677---77766-----------------I 
A-55555555----------------7----------------I
E---------------------------------2--------I 
 
intro (4:18) 2x
bridge II (4:30) 1x	      
refrain (4:36) 6x
refrain-variation (5:14) 1x
refrain (5:20) 1x


Feedback, additions and corrections welcome
            
Submit corrections

comments powered by Disqus
↑ Back to top | H-Blockx Bass for I Heard Him Cry. Lyrics for acoustic guitar and electric guitar. 1 Tablatures and chords are parodies/interpretations of the original songs. You may use it for private study, scholarship, research or language learning purposes only