» » »

I Dont Want You To Like Me Tabs (ver.1)

Artists:  A B C D E F G H I J K L M N O P Q R S T U V W X Y Z # 

I Dont Want You To Like Me Tabs (ver.1)

H-Blockx
Rating:
0/5 (0 votes)

Hard to play? Try these video lessons and learn fast.
                Hi,
this is my first tab. I know that h-blockx tune their guitars 1/2 step down, but i heard 
in standart tuning.

I am 13 years old and play 1 year.

Intro and Verse:

E|---------------------------------------------------------|
B|---------------------------------------------------------|
G|-------------6----------------6--6-------------6---------|
D|--8--8-------6----6---8-------6--6----6---8----6---6--8--|
A|--8--8-------4----6---8-------4--4----6---8----4---6--8--|
E|--6--6------------4---6---------------4---6--------4--6--|

Bridge:
E|------------------------------------------------------|
B|------------------------------------------------------|
G|---------6----------x2 and then:--8-8-8-8-8-8-8-8-8-8-|
D|--8-8-6--6------------------------8-8-8-8-8-8-8-8-8-8-|
A|--8-8-6--4------------------------6-6-6-6-6-6-6-6-6-6-|
E|--6-6-4-----------------------------------------------|

Chorous:
E|----------------------------------|
B|----------------------------------|
G|----------------6---6-6--8---8-8--|
D|--8-8-8-8-8-8-8-6---6-6--8---8-8--|
A|--8-8-8-8-8-8-8-4---4-4--6---6-6--|
E|--6-6-6-6-6-6-6-------------------|  ...and so on

At the end of Chorous:

E|-----------------------------|
B|-----------------------------|
G|--6--6-6-6---8--8-8-8--------|
B|--6--6-6-6---8--8-8-8--8*-8*-|
A|--4--4-4-4---6--6-6-6--8*-8*-| (*Belong to Intro Riff)
E|-----------------------6*-6*-|


Hear the Song and try, i am sure you can play it. I hav not the tabs for the bridge 2 
last chorous.
            
Hard to play? Try these video lessons and learn fast. | Correct




comments powered by Disqus
↑ Back to top | Tablatures and chords are parodies/interpretations of the original songs. You may use it for private study, scholarship, research or language learning purposes only