» » »

H-Blockx, Countdown To Insanity Bass tabs (ver.2)

Artists:  A B C D E F G H I J K L M N O P Q R S T U V W X Y Z # 

Countdown To Insanity Bass tabs (ver.2)

H-Blockx Tabs
 Rating:
4/5 (4 votes)
Countdown To Insanity lessons Tabs too difficult? Try these video lessons and learn fast
                b= one halfsteptone down
A Riff from 0:09
G b---------------------------------------------------------|
D b---------------------------------------------------------|
A b--2-2----0-0------------------2-2----0-0-----------------|
E b----------------3-3----0-0------------------3-3----0-0---|

G b---------------------------------------------------------|
D b---------------------------------------------------------|
A b--2-2-2-2--0--0-0----------------------------------------|
E b--------------------3--3-3---0-0-0-----------------------|

G b---------------------------------------------------------|
D b---------------------------------------------------------|
A b--2-2-2---0-0-0------------------------------------------|
E b--------------------3-3-3---0-0--------------------------|

B Verse (during the Keyboard plays)
         B                D#m                   A
G b------------------------------------------------------------|
D b------------------------------------7-7-7-7-7-7-7-7---------|
A b-------------------6-6-6-6-6-6-6-6--------------------------|
E b--7-7-7-7-7-7-7-9-------------------------------------------|

           E                B               D#m
G b------------------|---------------------------8/9/8--6/4----|
D b------------------|-----------------------------------------|
A b--7-7-7-7-7-7-7-7-|------------------6-6-6-6----------------|
E b------------------|-7-7-7-7-7-7-7-9-------------------------|

           A                 E                 G
G b------------------------------------------------------------|
D b--7-7-7-7-7-7-7-7-------------------------------------------|
A b-------------------7-7-7-7-7-7-7-7--------------------------|
E b--------------------------------------3-3-3-3-3-3-3-3-------|

          E                   G                 A
G b-------------------|-----------------------------------------|
D b--2-2-2-2-2-2-2----|-----------------------------------------|
A b-------------------|--------------------0-0-0-0-0-0-0-0------|
E b----------------2--|--3-3-3-3-3-2-3--4-----------------------|

C Chorus
G b------------------------------------------------------------|
D b------------------------------------------------------------|
A b--2-2---0-0---------------2-2---0-0-------------------------|
E b---------------3-3---0-0---------------3-3---0-0------------|

G b------------------------------------------------------------|
D b------------------------------------------------------------|
A b--2-2-2-2-0-0-0-0---------------------2-2-2-2-0-0-0-0-------|
E b--------------------3-3-3-3-0-0-0-0-------------------------|

G b------------------------------------------------------------|
D b------------------------------------------------------------|
A b--------------------2-2-2-2-0-0-0-0-------------------------|
E b--3-3-3-3-0-0-0-0---------------------3-3-3-3-0-0-0-0-------|

G b------------------------------------------------------------|
D b------------------------------------------------------------|
A b--2-2-2-2-0-0-0-0-------------------------------------------|
E b--------------------3-3-------------------------------------|

The Plan to play the song i dont`t really know, because i`m originally guitarist, so you 
to think your own plan.
Have fun.
            
Submit corrections

comments powered by Disqus
↑ Back to top | H-Blockx Bass for Countdown To Insanity. Lyrics for acoustic guitar and electric guitar. Tablatures and chords are parodies/interpretations of the original songs. You may use it for private study, scholarship, research or language learning purposes only