» » »

Countdown To Insanity Bass tabs (ver.1)

Artists:  A B C D E F G H I J K L M N O P Q R S T U V W X Y Z # 

Countdown To Insanity Bass tabs (ver.1)

H-Blockx
Rating:
5/5 (1 vote)

Hard to play? Try these video lessons and learn fast.
                ============================================================================
============================================================================

Tuning: Standard


Intro:
      Come in after 2 rounds of guitar
G|-------------------------------------------------------------|
D|-------------------------------------------------------------|
A|----------------6-6------------------6-6---------------------|
E|-6-6--4-4--2-2--------6-6--4-4--2-2--------------------------|

G|-------------------------------------------------------------|
D|-------------------------------------------------------------|
A|-------------------6666--------------------6666--------------|
E|-6666--4444--2222--------6666--4444--2222--------------------|

Vers
G|-------------------------------------------------------------|
D|-------------------------------------------------------------|
A|-----------55555555------------66666666----------------------|
E|-66666666------------44444444--------------------------------|

G|-------------------------------------------------------------|
D|-------------------------------------------------------------|
A|-----------55555555------------66666666----------------------|
E|-66666666------------44444444--------------------------------|

G|-------------------------------------------------------------|
D|-------------------------------------------------------------|
A|-----------66666666------------------------------------------|
E|-22222222------------44444444--55555555----------------------|

Chorus1
G|-------------------------------------------------------------|
D|-------------------------------------------------------------|
A|----------------6-6------------------6-6---------------------|
E|-6-6--4-4--2-2--------6-6--4-4--2-2--------------------------|

G|-------------------------------------------------------------|
D|-------------------------------------------------------------|
A|-------------------6666--------------------6666--------------|
E|-6666--4444--2222--------6666--4444--2222--------------------|

G|-------------------------------------------------------------|
D|-------------------------------------------------------------|
A|-------------------6666--------------------------------------|
E|-6666--4444--2222--------6666--4444--2-2---------------------|

G|-------------------------------------------------------------|
D|-------------------------------------------------------------|
A|-------------------6666--------------------6666--------------|
E|-6666--4444--2222--------6666--4444--2222--------------------|

Vers2
G|-------------------------------------------------------------|
D|-------------------------------------------------------------|
A|-----------55555555------------66666666----------------------|
E|-66666666------------44444444--------------------------------|

G|-------------------------------------------------------------|
D|-------------------------------------------------------------|
A|-----------55555555------------66666666----------------------|
E|-66666666------------44444444--------------------------------|

G|-------------------------------------------------------------|
D|-------------------------------------------------------------|
A|-----------66666666------------------------------------------|
E|-22222222------------44444444--55555555----------------------|

Chorus2
G|-------------------------------------------------------------|
D|-------------------------------------------------------------|
A|----------------6-6------------------6-6---------------------|
E|-6-6--4-4--2-2--------6-6--4-4--2-2--------------------------|

G|-------------------------------------------------------------|
D|-------------------------------------------------------------|
A|-------------------6666--------------------6666--------------|
E|-6666--4444--2222--------6666--4444--2222--------------------|

G|-------------------------------------------------------------|
D|-------------------------------------------------------------|
A|-------------------6666--------------------------------------|
E|-6666--4444--2222--------6666--4444--2-2---------------------|

G|-------------------------------------------------------------|
D|-------------------------------------------------------------|
A|-------------------6666--------------------6666--------------|
E|-6666--4444--2222--------6666--4444--2222--------------------|

then
G|-------------------------------------------------------------|
D|-------------------------------------------------------------|
A|-------------------------------66666666----------------------|
E|-66666666--44444444--22222222--------------------------------|

G|-------------------------------------------------------------|
D|-------------------------------------------------------------|
A|----------------6-6------------------6-6---------------------|
E|-6-6--4-4--2-2--------6-6--4-4--2-2--------------------------|

G|-------------------------------------------------------------|
D|-------------------------------------------------------------|
A|----------------6-6------------------6-6---------------------|
E|-6-6--4-4--2-2--------6-6--4-4--2-2--------------------------|

G|-------------------------------------------------------------|
D|-------------------------------------------------------------|
A|-------------------6666--------------------6666--------------|
E|-6666--4444--2222--------6666--4444--2222--------------------|

G|-------------------------------------------------------------|
D|-------------------------------------------------------------|
A|-------------------6666--------------------------------------|
E|-6666--4444--2222--------6666--4444--2-2---------------------|


G|-------------------------------------------------------------|
D|-------------------------------------------------------------|
A|-------------------6666--------------------6666--------------|
E|-6666--4444--2222--------6666--4444--2222--------------------|


G|-------------------------------------------------------------|
D|-------------------------------------------------------------|
A|-------------------6666--------------------6666--------------|
E|-6666--4444--2222--------6666--4444--2222--------6-6---------|

===========================================================================
|~~~M~M~~~~~OO~~~EEE~~RRr~~~CC~~H~H~~EEE~~n~N~~~OO~~~PPp~~PPp~I~|
|~~M~M~M~~~O~~O~~Eee~~Rrr~~C~~~~HHH~~Eee~~NnN~~O~~O~~Ppp~~Ppp~I~|
|~M~~~~~M~~~OO~~~EEE~~R~R~~~CC~~H~H~~EEE~~N~n~~~OO~~~P~~~~P~~~I~|
===========================================================================
            
Hard to play? Try these video lessons and learn fast. | Correct




comments powered by Disqus
↑ Back to top | Tablatures and chords are parodies/interpretations of the original songs. You may use it for private study, scholarship, research or language learning purposes only