» » »

Hazen Street, Crossroads Tabs (ver.1)

Artists:  A B C D E F G H I J K L M N O P Q R S T U V W X Y Z # 

Crossroads Tabs (ver.1)

Hazen Street Tabs
 Rating:
4/5 (4 votes)
Crossroads lessons Tabs too difficult? Try these video lessons and learn fast
                (intro/Chorus)
|-----------------------------------------------------------------|
|-----------------------------------------------------------------|
|-----------------------------------------------------------------|
|--5--------3--------1--------3-----------------------------------|x4
|--5-(x8)---3-(x8)---1-(x8)---3-(x8)------------------------------|
|--5--------3--------1--------3-----------------------------------|



|-----------------------------------------------------------------|
|-----------------------------------------------------------------|
|-----------------------------------------------------------------|
|---x-0-x-0h3-x------x-0-x-0-6666---x-0-x-0h3------x-0-x-0-6666---|
|---x-0-x-0h3-x-(x7)-x-0-x-0-6666---x-0-x-0h3-(x7)-x-0-x-0-6666---|
|---x-0-x-0h3-x------x-0-x-0-6666---x-0-x-0h3------x-0-x-0-6666---|


|-----------------------------------------------------------------|
|-----------------------------------------------------------------|
|-----------------------------------------------------------------|
|--5~--x-3---5~--x-3---5~--x-3--1--3--6--8------------------------|
|--5~--x-3---5~--x-3---5~--x-3--1--3--6--8------------------------|
|--5~--x-3---5~--x-3---5~--x-3--1--3--6--8------------------------|

(chorus)
|-----------------------------------------------------------------|
|-----------------------------------------------------------------|
|-----------------------------------------------------------------|
|--5--------3--------1--------3-----------------------------------|x4
|--5-(x8)---3-(x8)---1-(x8)---3-(x8)------------------------------|
|--5--------3--------1--------3-----------------------------------|
                


|-----------------------------------------------------------------|
|-----------------------------------------------------------------|
|-----------------------------------------------------------------|
|---x-0-x-0h3-x------x-0-x-0-6666---x-0-x-0h3------x-0-x-0-6666---|
|---x-0-x-0h3-x-(x7)-x-0-x-0-6666---x-0-x-0h3-(x7)-x-0-x-0-6666---|
|---x-0-x-0h3-x------x-0-x-0-6666---x-0-x-0h3------x-0-x-0-6666---|


|-----------------------------------------------------------------|
|-----------------------------------------------------------------|
|-----------------------------------------------------------------|
|--5~--x-3---5~--x-3---5~--x-3--1--3--6--8------------------------|
|--5~--x-3---5~--x-3---5~--x-3--1--3--6--8------------------------|
|--5~--x-3---5~--x-3---5~--x-3--1--3--6--8------------------------|


|-----------------------------------------------------------------|
|-----------------------------------------------------------------|
|-----------------------------------------------------------------|
|--5--------3--------1--------3-----------------------------------|x4
|--5-(x8)---3-(x8)---1-(x8)---3-(x8)------------------------------|
|--5--------3--------1--------3-----------------------------------|

|-----------------------------------------------------------------|
|-----------------------------------------------------------------|
|-----------------------------------------------------------------|
|--00-0-0-00-7~--00-0-0-00--00-7------0-0-00--00-7------0-0-00----|
|--00-0-0-00-x~--00-0-0-00--00-x-(x8)-0-0-00--00-x-(x8)-0-0-00----|
|--00-0-0-00-5~--00-0-0-00--00-5------0-0-00--00-5------0-0-00----|
   .. . . ..     .. . . ..  ..        . . ..  ..        . . ..
|-----------------------------------------------------------------|
|-----------------------------------------------------------------|
|-----------------------------------------------------------------|
|-00-7------0-0-00-777777-8888-7777-00-7------0x0-----------------|
|-00-x-(x8)-0-0-00-xxxxxx-xxxx-xxxx-00-x-(x8)-0x0-----------------|
|-00-5------0-0-00-555555-6666-5555-00-5------0x0-----------------|
  ..        . . ..                  ..        . .

|-------------------------|
|-------------------------|
|-------------------------|
|---1--3--6--8------------|
|---1--3--6--8------------|
|---1--3--6--8------------|

|-----------------------------------------------------------------|
|-----------------------------------------------------------------|
|-----------------------------------------------------------------|
|--5--------3--------1--------3-----------------------------------|x7
|--5-(x8)---3-(x8)---1-(x8)---3-(x8)------------------------------|
|--5--------3--------1--------3-----------------------------------|

|-----------------------------------------------------------------|
|-----------------------------------------------------------------|
|-----------------------------------------------------------------|
|-5---------3--------1--3--6--8-----------------------------------|
|-5-(x8)----3-(x8)---1--3--6--8-----------------------------------|
|-5---------3--------1--3--6--8-----------------------------------|

End on:
|-----|
|-----|
|-----|
|-5---|
|-5---|
|-5---|

There is definately a second guitar in this song but i couldn't be bothered
tabbing that one but you should be able to guess it, it's not overly hard.
Please rate this one!thanks.
            
Submit corrections

comments powered by Disqus
↑ Back to top | Hazen Street Tabs for Crossroads. Lyrics for acoustic guitar and electric guitar. Tablatures and chords are parodies/interpretations of the original songs. You may use it for private study, scholarship, research or language learning purposes only