» » »

Haywire, Things We Clear Tabs (ver.1)

Artists:  A B C D E F G H I J K L M N O P Q R S T U V W X Y Z # 

Things We Clear Tabs (ver.1)

Haywire Tabs
 Rating:
4/5 (4 votes)
Things We Clear lessons Tabs too difficult? Try these video lessons and learn fast
                Haywire

Intro
G------------------------------------------------------------------------------------
D------------------------------------------------------------------------------------
A--0--0--0--0----------------------------------------------------------------------
E----------------1--1--1--1--------------------------------------------------------
20x

Bridge
G------------------------------------------------------------------------------------
D------------------------------------------------------------------------------------
A------------------------------------------------------------------------------------
E--3-3-3-3-3-----3----------------------------------------------------------------
2x

Chorus
G------------------------------------------------------------------------------------
D------------------------------------------------------------------------------------
A------------------------------------------0-0-2-2-3-3-55------------------------
E-1-1-1-1-1-1-1-1-3-3-3-3-3-3-3-3--------------------------------------------
1x

Chorus2
G------------------------------------------------------------------------------------
D------------------------------------------------------------------------------------ 
A-------------------------------------------------------------*-*-*-*-*-*-*-*----
E1-1-1-1-1-1-1-1-3-3-3-3-3-3-3-3-3-5-5-3-3-1-3-----3-3-3-3-3-3-3-3----
1x

Intro 10x
Bridge 1x
Chorus 2x
Chorus2 1x

Solo
G----------------------------------------------------------------------------------
D-----------------------------------------------------------------------------------
A-0-0-0-0-2-2-2-2-3-3-3-3-5-5-5-5-------------------------------------------
A-----------------------------------------1-1-1-1-3-3-3-3-5-5-5-5-8-8-8-8---
4x

Chorus 2x
Chorus2 1x
Chorus 2x
Chorus2 1x
            
Submit corrections

comments powered by Disqus
↑ Back to top | Haywire Tabs for Things We Clear. Lyrics for acoustic guitar and electric guitar. Tablatures and chords are parodies/interpretations of the original songs. You may use it for private study, scholarship, research or language learning purposes only