» » »

Haywire, Deterred Bass tabs (ver.1)

Artists:  A B C D E F G H I J K L M N O P Q R S T U V W X Y Z # 

Deterred Bass tabs (ver.1)

Haywire Tabs
Rating:
0/5 (0 votes)
Hard to play? Try these video lessons and learn fast.
                Haywire

Íntro
G------------------------------------------------------------------------------------
D------------------------------------------------------------------------------------
A------------------------------------------------------------------------------------
E--0--0--3--3--7-7--7-7-----------------------------------------------------------
6x

Bridge
G------------------------------------------------------------------------------------
D------------------------------------------------------------------------------------
A------------------------------------------------------------------------------------
E-5-5-5-5-5-5-5-5----3-3-3-3-2-2-2-2-----------------------------------------
1x

Chorus
G------------------------------------------------------------------------------------
D------------------------------------------------------------------------------------
A------------------------------------------------------------------------------------
E-0-0-0-0-0-0-0-0-7-7-7-7-7-7-7-7--------------------------------------------
4x

Intro 6x
Bridge1x
Chorus 4x
Intro 6x
Bridge1x
Chorus 4x

Chorus2
G------------------------------------------------------------------------------------
D------------------------------------------------------------------------------------
A------------------------------------------------------------------------------------
E-3-3-3-3-3-3-3-3-7-7-7-7-7-7-7-7--------------------------------------------
4x

Chorus3
G------------------------------------------------------------------------------------
D------------------------------------------------------------------------------------
A------------------------------------------------------------------------------------
E-0-0---0-0----7-7-7-7-7-7-7-7-------------------------------------------------
4x

Chorus 4x
            

comments powered by Disqus
↑ Back to top | Haywire Bass for Deterred. Lyrics for acoustic guitar and electric guitar. Tablatures and chords are parodies/interpretations of the original songs. You may use it for private study, scholarship, research or language learning purposes only