» » »

You Shook Me All Night Long Bass tabs (ver.1)

Artists:  A B C D E F G H I J K L M N O P Q R S T U V W X Y Z # 

You Shook Me All Night Long Bass tabs (ver.1)

Hayseed Dixie
Rating:
0/5 (0 votes)

Hard to play? Try these video lessons and learn fast.
                (Live)
Great song, Great Band!

Intro          Verse
G-----------|---------------------------------------------------------|
D-----------|--------------------------7------------------------------|
A-------3~--|-------5---3-2-3-4-5---------------5--------5------------|
E--3~-------|---3--------------------------3---------3----------------|


Chorus
G--------------------------------------------------------------------|
D--------------------7-----------------------------------------------|
A-------3~--2~---5--------5--3--2------------------------------------|
E---3~--------------------------------5------------------------------|

Like most Hayseed Dixie songs its not complicated but quite fun to play
Jazz it up yourself, this is just the rough outline for it

For the interlude play the verse and thats about it!

thanks
            
Hard to play? Try these video lessons and learn fast. | Correct




comments powered by Disqus
↑ Back to top | Tablatures and chords are parodies/interpretations of the original songs. You may use it for private study, scholarship, research or language learning purposes only