» » »

Hawks, I Like You Tabs (ver.1)

Artists:  A B C D E F G H I J K L M N O P Q R S T U V W X Y Z # 

I Like You Tabs (ver.1)

Hawks Tabs
 Rating:
4/5 (4 votes)
I Like You lessons Tabs too difficult? Try these video lessons and learn fast
1
                The Hawks - I Like You

This is the new song!!!


Guitar 2 (Intro Riff):
e|------------------------------------|
b|------------------------------------|
g|-5----------------------------------|
d|-5---3-----7-----5------------------| 4x
a|-3---3-----7-----5------------------|
E|-----1-----5-----3------------------|

Guitar 1 (Lead Intro Riff): PHASER EFFECT!
e|------------------------------------|
b|--6p5----8p5-----6p5-----8p5--------|
g|------5------5--------5-------5-----|
d|------------------------------------| 4x
a|------------------------------------|
E|------------------------------------|


Main Riff (Guitar1):
e|-------------------------------------------------|
b|-------------------------------------------------|
g|---------------------------------------3-3-2-----|
d|------5-3-2------5-3-2------2h3p2----------------|
a|--3-3--------3-3--------0-0--------1-1-----------|
E|-------------------------------------------------|

Rhythm above this scheme:
e|-------------------------------------------------|
b|-------------------------------------------------|
g|--5--5---2-2-2-2---------------------------------|
d|--5--5---2-2-2-2-3-3-3-3-------------------------|
a|--3--3---0-0-0-0-3-3-3-3-------------------------|
E|-----------------1-1-1-1-------------------------|

Verse Riff:(Bass [2nd Verse Guitar1]) PALM MUTED!
e|-------------------------------------------------|
b|-------------------------------------------------|
g|-5-----2-----------------------------------------|
d|-5-8x--2-4x--3-----------------------------------|
a|-3-----0-----3-4x--------------------------------|
E|-------------1-----------------------------------|

Bridge:
e|-------------------------------------------------|
b|-------------------------------------------------|
g|-5-----3-----------------------------------------|
d|-5-4x--3-4x--------------------------------------|
a|-3-----1-----------------------------------------|
E|-------------------------------------------------|

Chorus: (Guitar 1) >Bridge!<
e|-12------------10------------8----------10--------------|
b|-13-13h15-13---12-12h13-12---10-10h12---12-12h13-12-----|
g|-14------------12------------10---------12--------------|
d|--------------------------------------------------------|
a|--------------------------------------------------------|
E|--------------------------------------------------------|

Chorus: (Guitar 2) >Bridge!<
e|--------------------------------------------------------|
b|--------------------------------------------------------|
g|-14---14-14---12---12-12---10--10--10---12---12-12------|
d|-14---14-14---12---12-12---10--10--10---12---12-12------|
a|-12---12-12---10---10-10---8---8---8----10---10-10------|
E|--------------------------------------------------------|


CHORUS:

C----F--G


Repeat all...and then END ON!
            
Submit corrections

comments powered by Disqus
↑ Back to top | Hawks Tabs for I Like You. Lyrics for acoustic guitar and electric guitar. 1 Tablatures and chords are parodies/interpretations of the original songs. You may use it for private study, scholarship, research or language learning purposes only