» » »

Hawks, Come On Now Tabs (ver.1)

Artists:  A B C D E F G H I J K L M N O P Q R S T U V W X Y Z # 

Come On Now Tabs (ver.1)

Hawks Tabs
 Rating:
4.2/5 (5 votes)
Come On Now lessons Tabs too difficult? Try these video lessons and learn fast
1
                The Hawks - Come On Now

Intro 2nd Guitar:
e|-------5-5--7-7--3-3--------5-5--7-7-3h5-3p2---|
b|------5-5--7-7--3-3--------5-5--7-7----------3-|
g|--7-7------------------7-7---------------------|
d|-7-7------------------7-7----------------------|
a|-----------------------------------------------|
E|-----------------------------------------------|


Main Chords for Intro + Verse:
  D5        A5       B5        G5  palm muted
e|----------------------------------------------|
b|----------------------------------------------|
g|-7-7-7-7x-------------------------------------|
d|-7-7-7-7x--7-7-7-7x--9-9-9-9x---4/5-5-5-5x----|
a|-5-5-5-5x--7-7-7-7x--9-9-9-9x---4/5-5-5-5x----|
E|-----------5-5-5-5x--7-7-7-7x---2/3-3-3-3x----|

Bridge:
e|-5----5----7----3-----------------------------|
b|-7----5----7----3-----------------------------|
g|-7----6----7----4-----------------------------|
d|----------------------------------------------|
a|----------------------------------------------|
E|----------------------------------------------|


Chords Refrain:
   B5    A5        D5       G5
e|----------------------------------------------|
b|----------------------------------------------|
g|----------------7-7-7-7-----------------------|
d|-9-9---7-7------7-7-7-7--5-5-5-5--------------|
a|-9-9---7-7------5-5-5-5--5-5-5-5--------------|
E|-7-7---5-5---------------3-3-3-3--------------|

Solo
e|----------------------------------------------|
b|------------------5----7-7-7h8h10--8p7--------|
g|-19\\\--7-7-7-6h7--6-7-----------------7-7----| 4x
d|-19\\\----------------------------------------|
a|----------------------------------------------|
E|----------------------------------------------|
            
Submit corrections

comments powered by Disqus
↑ Back to top | Hawks Tabs for Come On Now. Lyrics for acoustic guitar and electric guitar. 1 Tablatures and chords are parodies/interpretations of the original songs. You may use it for private study, scholarship, research or language learning purposes only