» » »

Your Love Is A Mystery Tabs (ver.1)

Artists:  A B C D E F G H I J K L M N O P Q R S T U V W X Y Z # 

Your Love Is A Mystery Tabs (ver.1)

Hawk Nelson
Rating:
0/5 (0 votes)

Hard to play? Try these video lessons and learn fast.
                Hawk Neslon - Your Love Is A Mystery

My FAVORITE song by Hawk Nelson. This song is
Sooo sweet. And its about such a cool topic.
Like, how even though I'm a sinner JESUS STILL
LOVES ME!!! So beautiful. I just love how
Hawk Nelson puts that point across.
I Hope You like the tab and God bless.
Rock for Him.



Intro:          (rep x2)
E-------------------------------------------------------------|
B-------------------------------------------------------------|
G-------------------------------------------------------------|
D-3-3-3-3-3-3-3-3--8-8-8-8-8-8-8-8-5--5-5-5-5-5-5-5-----------|
A-3-3-3-3-3-3-3-3--8-8-8-8-8-8-8-8-5--5-5-5-5-5-5-5-----------|
E-1-1-1-1-1-1-1-1--6-6-6-6-6-6-6-6-3--3-3-3-3-3-3-3--(rep x2)-|


Verse:1

Palm muting       (I couldn't hear any guitar in the verse. So if you want to do this)
E-------------------------------------|
B-------------------------------------|
G-------------------------------------|
D-3-----------------------------------|
A-3-----------------------------------|
E-1-----------------------------------|
God I messed this up again
E-------------------------------------|
B-------------------------------------|
G-------------------------------------|
D-7-----------------------------------|
A-7-----------------------------------|
E-5-----------------------------------|
I seem to do this all the time
E--------------------------------------|
B--------------------------------------|
G--------------------------------------|
D-3------------------------------------|
A-3------------------------------------|
E-1------------------------------------|
Can You forgive me once again
E---------------------------------------|
B---------------------------------------|
G---------------------------------------|
D---------5-------------------8---------|
A---------5-------------------8---------|
E---------3-------------------6---------|
Or have I finally crossed the line  (SAME CHORDS FOR THE REST OF THE LYRICS)

PreChorus:
muted
E-----------------------------------------------------------|
B-----------------------------------------------------------|
G--7-7-7-7-7-7-7-7--9-9-9-9-9-9-9-9-------------------------|
D--7-7-7-7-7-7-7-7--9-9-9-9-9-9-9-9--8-8-8-8-8-8-8----------|
A--5-5-5-5-5-5-5-5--7-7-7-7-7-7-7-7--8-8-8-8-8-8-8----------|
E------------------------------------6-6-6-6-6-6-6----------|

Chorus: (listen to song for strumming)
(Strum these Chords)
E--------------------------------------|
B--------------------------------------|
G----------5-----7-----3---------------|
D--3-------5-----7-----3---------------|
A--3-------3-----5-----1---------------|
E--1-----------------------------------|

E---------------------------------------------------|
B---------------------------------------------------|
G--------5---*-*-*-*-*-*-*-*------------------------|
D--3-----5---5-5-5-5-7-7-7-7------------------------|
A--3-----3---5-5-5-5-7-7-7-7------------------------|
E--1---------3-3-3-3-5-5-5-5------------------------|
            (..You still love me) (Intro)


Bridge:

E--------------------------------------------------------------|
B--------------------------------------------------------------|
G-----------------------------------------------5-5-5-5-5-5-5--|
D--7-7-7-7-7-7-7--8-8-8-8-8-8-8--5-5-5-5-5-5-5--5-5-5-5-5-5-5--|
A--7-7-7-7-7-7-7--8-8-8-8-8-8-8--5-5-5-5-5-5-5--3-3-3-3-3-3-3--|
E--5-5-5-5-5-5-5--6-6-6-6-6-6-6--3-5-5-5-5-5-5-----------------|
            
Hard to play? Try these video lessons and learn fast. | Correct




comments powered by Disqus
↑ Back to top | Tablatures and chords are parodies/interpretations of the original songs. You may use it for private study, scholarship, research or language learning purposes only