» » »

Lets DanceIntro Tabs (ver.1)

Artists:  A B C D E F G H I J K L M N O P Q R S T U V W X Y Z # 

Lets DanceIntro Tabs (ver.1)

Hawk Nelson
Rating:
0/5 (0 votes)

Hard to play? Try these video lessons and learn fast.
                This is my first tab but I'm sure it's right

e//--------------------------------------------------|
B//--------------------------------------------------|
G//--------------------------------------------------|
D//--------------------------------------------------|
A//------0-30-030-------------5----5-----------------|     x2
E//---------------0-300030-5---5--5-5--00003333------|


Verse 1

   They teach us how to talk they teach us walk....
e//-------------------------------|
B//-------------------------------|
G//-------------------------------|
D//-------------------------33355-|
A//-----00-XXX----XXX---XXX-33355-|
E//--------XXX-33-XXX-00XXX-11133-|

They teach us how to dress in nothin' but the best...
e//--------------------------------|
B//--------------------------------|
G//--------------------------------|
D//-------------------------33355--|xx
A//-----00-XX0----XX----XX--33355--|xx
E//--------XX--33-XX3-00XX0-11133--|xx


thats all I've figured out so far
God Bless
            
Hard to play? Try these video lessons and learn fast. | Correct




comments powered by Disqus
↑ Back to top | Tablatures and chords are parodies/interpretations of the original songs. You may use it for private study, scholarship, research or language learning purposes only