>
 >
Lets Dance 4

Lets Dance 4 Guitar Tabs

Hawk Nelson - Lets Dance 4 chords, tabs, tablatures, lyrics

Guitar lessons | Add/correct | Request | Top 50 tabs Artists:  A B C D E F G H I J K L M N O P Q R S T U V W X Y Z 0-9

Lets Dance 4 Guitar Tabs – Hawk Nelson

CD, Sheet music, Poster

Do you like Lets Dance 4? Share with your friends now
Tabs
Let's Dance
Hawk Nelson
Tuning: Drop C#

Intro x2
D#-------------------------------------------------------------------------|
A#-------------------------------------------------------------------------|
F#-------------------------------------------------------------------------|
C#--5--8-5--5--8-5----0--0-3--0--3-0----7--10-7---7--10-7---0-0-0-0-3-3-3-3|
G#--5--8-5--5--8-5----0--0-3--0--3-0----7--10-7---7--10-7---0-0-0-0-3-3-3-3|
C#--5--8-5--5--8-5----0--0-3--0--3-0----7--10-7---7--10-7---0-0-0-0-3-3-3-3|

Verse x2  (On the second time, play an extra chord for each new chord)
D#-------------------------------------------------------------------------|
A#-------------------------------------------------------------------------|
F#-------------------------------------------------------------------------|
C#--5--5----0--0----7--7----0-0-0-0-3-3-3-3--------------------------------|
G#--5--5----0--0----7--7----0-0-0-0-3-3-3-3--------------------------------|
C#--5--5----0--0----7--7----0-0-0-0-3-3-3-3--------------------------------|

Pre-Chorus
D#------------------------------------------------------------------------|
A#------------------------------------------------------------------------|
F#------------------------------------------------------------------------|
C#--5-5-5-5-5-5-5-4-3-3-3-3-3-3-3-3--5-5-5-5-5-5-5-5-7-7-7-7-7-9-7--------|
G#--5-5-5-5-5-5-5-4-3-3-3-3-3-3-3-3--5-5-5-5-5-5-5-5-7-7-7-7-7-9-7--------|
C#--5-5-5-5-5-5-5-4-3-3-3-3-3-3-3-3--5-5-5-5-5-5-5-5-7-7-7-7-7-9-7--------|

D#------------------------------------------------------------------------|
A#------------------------------------------------------------------------|
F#------------------------------------------------------------------------|
C#--5-5-5-5-5-5-5-5--3-3-3-3-3-3-3-3--5-5-5-5-5-5-5-5--7-7-7-7-7-7-7-7----|
G#--5-5-5-5-5-5-5-5--3-3-3-3-3-3-3-3--5-5-5-5-5-5-5-5--7-7-7-7-7-7-7-7----|
C#--5-5-5-5-5-5-5-5--3-3-3-3-3-3-3-3--5-5-5-5-5-5-5-5--7-7-7-7-7-7-7-7----|

Chorus x2
D#----------------------------------------------------------------------------------|
A#----------------------------------------------------------------------------------|
F#----------------------------------------------------------------------------------|
C#--777--777--777--777--555-555--333--333---555--555--555--555--333--333--111--111--|
G#--777--777--777--777--555-555--333--333---555--555--555--555--333--333--111--111--|
C#--777--777--777--777--555-555--333--333---555--555--555--555--333--333--111--111--|

Intro (only once!)

Verse x2
D#------------------------------------------------------------------|
A#------------------------------------------------------------------|
F#------------------------------------------------------------------|
C#--5--5----------0--0----------7--7----------0-0-0-0-3-3-3-3-------|
G#--5--5----------0--0----------7--7----------0-0-0-0-3-3-3-3-------|
C#--5--5--7-5-3---0--0--5-3-0---7--7--9-7-5---0-0-0-0-3-3-3-3-------|

Pre-Chorus
Chorus

Bridge x2
D#----------------------------------------------------------------------------------|
A#----------------------------------------------------------------------------------|
F#----------------------------------------------------------------------------------|
C#--7-5--7-7-5--7-7-5--7-5---7-5--7-7-5-5--8-8-8-8-10-10-10-10----------------------|
G#--7-5--7-7-5--7-7-5--7-5---7-5--7-7-5-5--8-8-8-8-10-10-10-10----------------------|
C#--7-5--7-7-5--7-7-5--7-5---7-5--7-7-5-5--8-8-8-8-10-10-10-10----------------------|

Then...  (Pause While... 'I don't wan't to look inside'...) (after pause play)
D#----------------------------------------------------------------------------------|
A#----------------------------------------------------------------------------------|
F#----------------------------------------------------------------------------------|
C#--5---0---7---0-0-0-0-3-3-3-3-----------------------------------------------------|
G#--5---0---7---0-0-0-0-3-3-3-3-----------------------------------------------------|
C#--5---0---7---0-0-0-0-3-3-3-3-----------------------------------------------------|

Chorus( Repeat guitar x4)

Outro 
D#-------------------------------------------------------------------------|
A#-------------------------------------------------------------------------|
F#-------------------------------------------------------------------------|
C#--5--8-5--5--8-5----0--0-3--0--3-0----7--10-7---7--10-7---0-0-0-0-3-3-3-3|
G#--5--8-5--5--8-5----0--0-3--0--3-0----7--10-7---7--10-7---0-0-0-0-3-3-3-3|
C#--5--8-5--5--8-5----0--0-3--0--3-0----7--10-7---7--10-7---0-0-0-0-3-3-3-3|





Comments


Popular Hawk Nelson tabs & chords
Hello 3 Bass Tabs
Alive Chords
Bring 'em Out Tabs
Fourteen 3 Tabs
Friend Like That Tabs
Lets DanceIntro Tabs
Show 1 Tabs
Things We Go Through Intro Tabs
Arms Around Me Ukulele
Everything You Ever Wanted Ukulele


Song lyrics



↑ Back to top | Tablatures and chords are parodies/interpretations of the original songs. You may use it for private study, scholarship, research or language learning purposes only
© 2014 AZChords.com Contact us | Privacy policy | DMCA | Add/correct tabs | Request tabs | Top 50 tabs