» » »

Let's Dance Tabs (ver.5)

Artists:  A B C D E F G H I J K L M N O P Q R S T U V W X Y Z # 

Let's Dance Tabs (ver.5)

Hawk Nelson
Rating:
0/5 (0 votes)

Hard to play? Try these video lessons and learn fast.
                (3)
Hawk Nelson
...Is My Friend
Let's Dance

Standard Tuning


 1 & 2 & 3 & 4 &  1 & 2 & 3 & 4 &  1 & 2 & 3 & 4 &  1 & 2 & 3 & 4 &  
|----------------|----------------|----------------|----------------|
|----------------|----------------|----------------|----------------|
|----------------|----------------|----------------|----------------|
|2---2-2---2-2-2-|----------------|0---7-0---0-7-0-|2-2-2-2-5-5-5-5-|
|0---3-0---0-3-0-|2---2-2-2-2-2-2-|0---5-0---0-5-0-|2-2-2-2-5-5-5-5-|
|----------------|0---3-0-0-0-3-0-|----------------|0-0-0-0-3-3-3-3-|

 1 & 2 & 3 & 4 &  1 & 2 & 3 & 4 &  1 & 2 & 3 & 4 &  1 & 2 & 3 & 4 &  
|----------------|----------------|----------------|----------------|
|----------------|----------------|----------------|----------------|
|----------------|----------------|----------------|----------------|
|2---2-2---2-2-2-|----------------|0---7-0---0-7-0-|2-2-2-2-5-5-5-5-|
|0---3-0---0-3-0-|2---2-2-2-2-2-2-|0---5-0---0-5-0-|2-2-2-2-5-5-5-5-|
|----------------|0---3-0-0-0-3-0-|----------------|0-0-0-0-3-3-3-3-|

 1 & 2 & 3 & 4 &  1 & 2 & 3 & 4 &  1 & 2 & 3 & 4 &  1 & 2 & 3 & 4 &  
|----------------|----------------|----------------|----------------|
|----------------|----------------|----------------|----------------|
|----------------|----------------|----------------|----------------|
|2-----2---------|----------------|----------------|3-3-3-3-5-5-5-5-|
|0-----0---------|5-----5---------|2-----2---------|3-3-3-3-5-5-5-5-|
|----------------|3-----3---------|0-----0---------|1-1-1-1-3-3-3-3-|

 1 & 2 & 3 & 4 &  1 & 2 & 3 & 4 &  1 & 2 & 3 & 4 &  1 & 2 & 3 & 4 &  
|----------------|----------------|----------------|----------------|
|----------------|----------------|----------------|----------------|
|----------------|----------------|----------------|----------------|
|2-----2-----2---|----------------|----------------|3-3-3-3-5-------|
|0-----0-----0---|5-----5-----5---|2-----2-----2---|3-3-3-3-5-------|
|----------------|3-----3-----3---|0-----0-----0---|1-1-1-1-3-------|

 1 & 2 & 3 & 4 &  1 & 2 & 3 & 4 &  1 & 2 & 3 & 4 &  1 & 2 & 3 & 4 &  
|----------------|----------------|----------------|----------------|
|----------------|----------------|----------------|----------------|
|----------------|----------4-----|----------9---7-|----------9---7-|
|----------5-----|----------2---5-|----------7---5-|----------7---5-|
|3---------3---5-|--------------3-|----------------|----------------|
|1-------------3-|----------------|----------------|----------------|

 1 & 2 & 3 & 4 &  1 & 2 & 3 & 4 &  1 & 2 & 3 & 4 &  1 & 2 & 3 & 4 &  
|----------------|----------------|----------------|----------------|
|----------------|----------------|----------------|----------------|
|4---------------|----------------|----------------|----------------|
|2---------------|5---------------|----------------|----------------|
|----------------|3---------------|5---------------|7---7---7---7---|
|----------------|----------------|3---------------|5---5---5---5---|

 1 & 2 & 3 & 4 &  1 & 2 & 3 & 4 &  1 & 2 & 3 & 4 &  1 & 2 & 3 & 4 &  
|----------------|----------------|----------------|----------------|
|----------------|----------------|----------------|----------------|
|----------------|5-5-5-5-5-5-5-5-|----------------|----------------|
|3-3-3-3-3-3-3-3-|5-5-5-5-5-5-5-5-|5-5-5-5-5-5-5-5-|7-7-7-7-5-7-5-5-|
|3-3-3-3-3-3-3-3-|3-3-3-3-3-3-3-3-|5-5-5-5-5-5-5-5-|7-7-7-7-5-7-5-5-|
|1-1-1-1-1-1-1-1-|----------------|3-3-3-3-3-3-3-3-|5-5-5-5-3-5-3-3-|

 1 & 2 & 3 & 4 &  1 & 2 & 3 & 4 &  1 & 2 & 3 & 4 &  1 & 2 & 3 & 4 &  
|----------------|----------------|----------------|----------------|
|----------------|----------------|----------------|----------------|
|----------------|5-5-5-5-5-5-5-5-|----------------|----------------|
|3-3-3-3-3-3-3-3-|5-5-5-5-5-5-5-5-|5-5-5-5-5-5-5-5-|7-7-7-7-5-7-5-5-|
|3-3-3-3-3-3-3-3-|3-3-3-3-3-3-3-3-|5-5-5-5-5-5-5-5-|7-7-7-7-5-7-5-5-|
|1-1-1-1-1-1-1-1-|----------------|3-3-3-3-3-3-3-3-|5-5-5-5-3-5-3-3-|

 1 & 2 & 3 & 4 &  1 & 2 & 3 & 4 &  1 & 2 & 3 & 4 &  1 & 2 & 3 & 4 &  
|----------------|----------------|----------------|----------------|
|----------------|----------------|----------------|----------------|
|----------------|----------------|----------------|----------------|
|2---2-2---2-2-2-|----------------|0---7-0---0-7-0-|2-2-2-2-5-5-5-5-|
|0---3-0---0-3-0-|2---2-2-2-2-2-2-|0---5-0---0-5-0-|2-2-2-2-5-5-5-5-|
|----------------|0---3-0-0-0-3-0-|----------------|0-0-0-0-3-3-3-3-|

 1 & 2 & 3 & 4 &  1 & 2 & 3 & 4 &  1 & 2 & 3 & 4 &  1 & 2 & 3 & 4 &  
|----------------|----------------|----------------|----------------|
|----------------|----------------|----------------|----------------|
|----------------|----------------|----------------|----------------|
|2-----2---------|----------------|----------------|3-3-3-3-5-5-5-5-|
|0-----0---5-3-2-|5-----5---------|2-----2-----2---|3-3-3-3-5-5-5-5-|
|----------------|3-----3---5-3-1-|0-----0-----0---|1-1-1-1-3-3-3-3-|

 1 & 2 & 3 & 4 &  1 & 2 & 3 & 4 &  1 & 2 & 3 & 4 &  1 & 2 & 3 & 4 &  
|----------------|----------------|----------------|----------------|
|----------------|----------------|----------------|----------------|
|----------------|----------------|----------------|----------------|
|2-----2---------|----------------|2-2-2-2-2-2-2-2-|3-3-3-3-5-5-5-5-|
|0-----0---5-3-2-|5-----5---------|2-2-2-2-2-2-2-2-|3-3-3-3-5-5-5-5-|
|----------------|3-----3---5-3-1-|0-0-0-0-0-0-0-0-|1-1-1-1-3-3-3-3-|

 1 & 2 & 3 & 4 &  1 & 2 & 3 & 4 &  1 & 2 & 3 & 4 &  1 & 2 & 3 & 4 &  
|----------------|----------------|----------------|----------------|
|----------------|----------------|----------------|----------------|
|----------------|----------4-----|----------9---7-|----------9---7-|
|----------5-----|----------2---5-|----------7---5-|----------7---5-|
|3---------3---5-|--------------3-|----------------|----------------|
|1-------------3-|----------------|----------------|----------------|

 1 & 2 & 3 & 4 &  1 & 2 & 3 & 4 &  1 & 2 & 3 & 4 &  1 & 2 & 3 & 4 &  
|----------------|----------------|----------------|----------------|
|----------------|----------------|----------------|----------------|
|4---------------|----------------|----------------|----------------|
|2---------------|5---------------|----------------|----------------|
|----------------|3---------------|5---------------|7---7---7---7---|
|----------------|----------------|3---------------|5---5---5---5---|

 1 & 2 & 3 & 4 &  1 & 2 & 3 & 4 &  1 & 2 & 3 & 4 &  1 & 2 & 3 & 4 &  
|----------------|----------------|----------------|----------------|
|----------------|----------------|----------------|----------------|
|----------------|5-5-5-5-5-5-5-5-|----------------|----------------|
|3-3-3-3-3-3-3-3-|5-5-5-5-5-5-5-5-|5-5-5-5-5-5-5-5-|7-7-7-7-5-7-5-5-|
|3-3-3-3-3-3-3-3-|3-3-3-3-3-3-3-3-|5-5-5-5-5-5-5-5-|7-7-7-7-5-7-5-5-|
|1-1-1-1-1-1-1-1-|----------------|3-3-3-3-3-3-3-3-|5-5-5-5-3-5-3-3-|

 1 & 2 & 3 & 4 &  1 & 2 & 3 & 4 &  1 & 2 & 3 & 4 &  1 & 2 & 3 & 4 &  
|----------------|----------------|----------------|----------------|
|----------------|----------------|----------------|----------------|
|----------------|5-5-5-5-5-5-5-5-|----------------|----------------|
|3-3-3-3-3-3-3-3-|5-5-5-5-5-5-5-5-|5-5-5-5-5-5-5-5-|7-7-7-7-5-7-5-5-|
|3-3-3-3-3-3-3-3-|3-3-3-3-3-3-3-3-|5-5-5-5-5-5-5-5-|7-7-7-7-5-7-5-5-|
|1-1-1-1-1-1-1-1-|----------------|3-3-3-3-3-3-3-3-|5-5-5-5-3-5-3-3-|

 1 & 2 & 3 & 4 &  1 & 2 & 3 & 4 &  1 & 2 & 3 & 4 &  1 & 2 & 3 & 4 &  
|----------------|----------------|----------------|----------------|
|----------------|----------------|----------------|----------------|
|----------------|----------------|----------------|----------------|
|2-----2---2---2-|2-------2-2-----|2-----2---2---2-|5-5-5-5-7-7-7-7-|
|0-----0---0---0-|0-------0-0-----|0-----0---0---0-|3-3-3-3-5-5-5-5-|
|----3-------3---|----3-------3---|----3-------3---|----------------|

 1 & 2 & 3 & 4 &  1 & 2 & 3 & 4 &  1 & 2 & 3 & 4 &  1 & 2 & 3 & 4 &  
|----------------|----------------|----------------|----------------|
|----------------|----------------|----------------|----------------|
|----------------|----------------|----------------|----------------|
|2-----2---2---2-|2-------2-2-----|2-----2---2---2-|5-5-5-5-7-7-7-7-|
|0-----0---0---0-|0-------0-0-----|0-----0---0---0-|3-3-3-3-5-5-5-5-|
|----3-------3---|----3-------3---|----3-------3---|----------------|

 1 & 2 & 3 & 4 &  1 & 2 & 3 & 4 &  1 & 2 & 3 & 4 &  1 & 2 & 3 & 4 &  
|----------------|----------------|----------------|----------------|
|----------------|----------------|----------------|----------------|
|----------------|----------------|----------------|----------------|
|----------------|----------------|----------------|----------------|
|----------------|----------------|----------------|----------------|
|----------------|----------------|----------------|----------------|

 1 & 2 & 3 & 4 &  1 & 2 & 3 & 4 &  1 & 2 & 3 & 4 &  1 & 2 &  3  &  4  &  
|----------------|----------------|----------------|--------------------|
|----------------|----------------|----------------|--------------------|
|----------------|5---------------|7---------------|9-9-9-9-12-12-12-12-|
|3---------------|5---------------|7---------------|9-9-9-9-12-12-12-12-|
|3---------------|3---------------|5---------------|7-7-7-7-10-10-10-10-|
|1---------------|----------------|----------------|--------------------|

 1 & 2 & 3 & 4 &  1 & 2 & 3 & 4 &  1 & 2 & 3 & 4 &  1 & 2 & 3 & 4 &  
|----------------|----------------|----------------|----------------|
|----------------|----------------|----------------|----------------|
|----------------|5-5-5-5-5-5-5-5-|----------------|----------------|
|3-3-3-3-3-3-3-3-|5-5-5-5-5-5-5-5-|5-5-5-5-5-5-5-5-|7-7-7-7-5-7-5-5-|
|3-3-3-3-3-3-3-3-|3-3-3-3-3-3-3-3-|5-5-5-5-5-5-5-5-|7-7-7-7-5-7-5-5-|
|1-1-1-1-1-1-1-1-|----------------|3-3-3-3-3-3-3-3-|5-5-5-5-3-5-3-3-|

 1 & 2 & 3 & 4 &  1 & 2 & 3 & 4 &  1 & 2 & 3 & 4 &  1 & 2 & 3 & 4 &  
|----------------|----------------|----------------|----------------|
|----------------|----------------|----------------|----------------|
|----------------|5-5-5-5-5-5-5-5-|----------------|----------------|
|3-3-3-3-3-3-3-3-|5-5-5-5-5-5-5-5-|5-5-5-5-5-5-5-5-|7-7-7-7-5-7-5-5-|
|3-3-3-3-3-3-3-3-|3-3-3-3-3-3-3-3-|5-5-5-5-5-5-5-5-|7-7-7-7-5-7-5-5-|
|1-1-1-1-1-1-1-1-|----------------|3-3-3-3-3-3-3-3-|5-5-5-5-3-5-3-3-|

 1 & 2 & 3 & 4 &  1 & 2 & 3 & 4 &  1 & 2 & 3 & 4 &  1 & 2 & 3 & 4 &  
|----------------|----------------|----------------|----------------|
|----------------|----------------|----------------|----------------|
|----------------|5-5-5-5-5-5-5-5-|----------------|----------------|
|3-3-3-3-3-3-3-3-|5-5-5-5-5-5-5-5-|5-5-5-5-5-5-5-5-|7-7-7-7-5-7-5-5-|
|3-3-3-3-3-3-3-3-|3-3-3-3-3-3-3-3-|5-5-5-5-5-5-5-5-|7-7-7-7-5-7-5-5-|
|1-1-1-1-1-1-1-1-|----------------|3-3-3-3-3-3-3-3-|5-5-5-5-3-5-3-3-|

 1 & 2 & 3 & 4 &  1 & 2 & 3 & 4 &  1 & 2 & 3 & 4 &  1 & 2 & 3 & 4 &  
|----------------|----------------|----------------|----------------|
|----------------|----------------|----------------|----------------|
|----------------|5-5-5-5-5-5-5-5-|----------------|----------------|
|3-3-3-3-3-3-3-3-|5-5-5-5-5-5-5-5-|5-5-5-5-5-5-5-5-|7-7-7-7-5-7-5-5-|
|3-3-3-3-3-3-3-3-|3-3-3-3-3-3-3-3-|5-5-5-5-5-5-5-5-|7-7-7-7-5-7-5-5-|
|1-1-1-1-1-1-1-1-|----------------|3-3-3-3-3-3-3-3-|5-5-5-5-3-5-3-3-|

 1 & 2 & 3 & 4 &  1 & 2 & 3 & 4 &  1 & 2 & 3 & 4 &  1 & 2 & 3 & 4 &  
|----------------|----------------|----------------|----------------|
|----------------|----------------|----------------|----------------|
|----------------|----------------|----------------|----------------|
|2---2-2---2-2-2-|----------------|0---7-0---0-7-0-|2-2-2-2-5-5-5-5-|
|0---3-0---0-3-0-|2---2-2-2-2-2-2-|0---5-0---0-5-0-|2-2-2-2-5-5-5-5-|
|----------------|0---3-0-0-0-3-0-|----------------|0-0-0-0-3-3-3-3-|

 1 & 2 & 3 & 4 &  1 & 2 & 3 & 4 &  1 & 2 & 3 & 4 &  1 & 2 & 3 & 4 &  
|----------------|----------------|----------------|----------------|
|----------------|----------------|----------------|----------------|
|----------------|----------------|----------------|----------------|
|2---2-2---2-2-2-|----------------|0---7-0---0-7-0-|2-2-2-2-5-5-5-5-|
|0---3-0---0-3-0-|2---2-2-2-2-2-2-|0---5-0---0-5-0-|2-2-2-2-5-5-5-5-|
|----------------|0---3-0-0-0-3-0-|----------------|0-0-0-0-3-3-3-3-|
            
Hard to play? Try these video lessons and learn fast. | Correct




comments powered by Disqus
↑ Back to top | Tablatures and chords are parodies/interpretations of the original songs. You may use it for private study, scholarship, research or language learning purposes only