» » »

Hello Bass tabs (ver.2)

Artists:  A B C D E F G H I J K L M N O P Q R S T U V W X Y Z # 

Hello Bass tabs (ver.2)

Hawk Nelson
Rating:
0/5 (0 votes)

Hard to play? Try these video lessons and learn fast.
                       intro
g----------------------------------/
d----------------------------------/
a-3333----333355553333-------------/
e-----1111------------111155553333-/

       verse 1
g----------------------------------/
d-----3333----5553----3333--5------/ x2
a-3333----3333----3333----33--3333-/
e----------------------------------/

       chorus
g----------------------------------/
d----------------------------------/ x2
a-3333----333355553333-------------/
e-----1111------------111155553333-/

       verse 2
g----------------------7545-5------5-----------------------------5555-/
d-----3333----5553-5323------5-5---------3333----5553----3333--55-----/
a-3333----3333----3-------------3-3--3333----3333----3333----33-------/
e---------------------------------------------------------------------/

       chorus
g----------------------------------/
d----------------------------------/ x2
a-3333----333355553333-------------/
e-----1111------------111155553333-/

g------------------------/
d------------------------/
a-3-----3--5--3----------/
e----1-----------1--5--3~/ let last note ring

KAZOO TIME!!!!!!

g-----------------------------------/
d-----------------------------------/ x2
a-55555----555577775555------------5/
e-----3333------------333377775555--/ play last note second time

hawk nelson rules!!!!
            
Hard to play? Try these video lessons and learn fast. | Correct




comments powered by Disqus
↑ Back to top | Tablatures and chords are parodies/interpretations of the original songs. You may use it for private study, scholarship, research or language learning purposes only