» » »

Hawk Nelson, Hello Tabs (ver.4)

Artists:  A B C D E F G H I J K L M N O P Q R S T U V W X Y Z # 

Hello Tabs (ver.4)

Hawk Nelson Tabs
Rating:
2/5 (2 votes)
Hello lessons Tabs too difficult? Try these video lessons and learn fast
                Intro: Part 1
/--------------------------------|
/--------------------------------|
/x9-9-9-99----------9-9-9-99-----|
/x9-9-9-99-7-7-7-77-9-9-9-99-9-9-|
/x7-7-7-77-7-7-7-77-7-7-7-77-9-9-|
/----------5-5-5-55----------7-7-|

Intro: Part 2
/---------------------------------------------------|
/---------------------------------------------------|
/---------------------------------------------------|
/9-9-99-11-11/13-11-9----9-9-99-11-11/13-11-9-13-11-|
/---------------------77----------------------------|
/---------------------------------------------------|

/-------------------------------------------------|
/-------------------------------------------------|
/-------------------------------------------------|
/9-9-99-11-11/13-11-9----11----9-9-11-11-11/13-11-|
/---------------------77----66--------------------|
/-------------------------------------------------|

Verse:
First, the bass guitar plays, then the guitar joins in on the next time around:
/----------------------------------------------------------------------|
/----------------------------------------------------------------------|
/x9-9-9-99----------9-9-9-99----------9-9-9-99----------99----99-9-9-9-|
/x9-9-9-99-7-7-7-77-9-9-9-99-9-9-9-99-9-9-9-99-7-7-7-77-99-99-99-9-9-9-|
/x7-7-7-77-7-7-7-77-7-7-7-77-9-9-9-99-7-7-7-77-7-7-7-77-77-99-77-7-7-7-|
/----------5-5-5-55----------7-7-7-77----------5-5-5-55----77----------|

Chorus: Play Intro part 2

Verse 2:
/-------77-7/9-7-----------------------|
/--------------7--99-10-99-77-99-9-9-9-|
/-99-9------------99-11-99-88-99-9-9-9-|
/-99-9---------------------------------|
/-77-7---------------------------------|
/--------------------------------------|

Play Chorus again.

Bridge:
/-------------------------------|
/-------------------------------|
/-------------------------------|
/-2---7---2---9---2---7--11---9-|
/-2---7---2---9---2---7--11---9-|
/-0---5---0---7---0---5---9---7-|

Play Chorus again, but 2 notes higher.
            
Submit corrections

comments powered by Disqus
↑ Back to top | Hawk Nelson Tabs for Hello. Lyrics for acoustic guitar and electric guitar. Tablatures and chords are parodies/interpretations of the original songs. You may use it for private study, scholarship, research or language learning purposes only