» » »

Hawk Nelson, Hello Tabs (ver.3)

Artists:  A B C D E F G H I J K L M N O P Q R S T U V W X Y Z # 

Hello Tabs (ver.3)

Hawk Nelson Tabs
 Rating:
4/5 (10 votes)
Hello lessons Tabs too difficult? Try these video lessons and learn fast
                -----------------------------------------------------------------------------
                             HELLO - Hawk Nelson
-----------------------------------------------------------------------------

Tuning: standard

Intro (this is also the chorus melody)
e|--------------------------------------------------------------------------|
B|----------5-----------------5-----5----------5--------33----------55------|
G|---55-55-7--7-5------55-55-7--7-5--7--55-55-7--7-5----------55-77----55---|
D|----------------53---------------------------------53----32---------------|
A|--------------------------------------------------------------------------|
E|--------------------------------------------------------------------------|

here's another way to play it ...
e|----------0-------------------0-----0-----------0------------------00-----|
B|---11-11-3--3-1--------11-11-3--3-1--3---11-11-3-------33----11-33----33--|
G|----------------0-----------------------------------0---------------------|
D|-----------------3-----------------------------------3----32--------------|
A|--------------------------------------------------------------------------|
E|--------------------------------------------------------------------------|

then the verse melody
e|--------------------------------------------------------------------------|
B|-------5----------------------------5-------------------------------------|
G|---55-7--7-5-45---45-5-5-74---5-45-7--7-5-45---55-44-55-5-5---------------|
D|--------------------------------------------------------------------------|
A|--------------------------------------------------------------------------|
E|--------------------------------------------------------------------------|

e|--------------------------------------------------------------------------|
B|-------5----------------------------5-------------------------------------|
G|---45-7--7-5-45---45-75-74---45-45-7--7-5-45---55-44-55-------------------|
D|--------------------------------------------------------------------------|
A|--------------------------------------------------------------------------|
E|--------------------------------------------------------------------------|

back to intro ...

-----------------------------------------------------------------------------
Chord Progression

    C5          F5          G5
e|-------|  e|-------|  e|-------|
B|-------|  B|-------|  B|-------|
G|----5--|  G|-------|  G|-------|
D|----5--|  D|----3--|  D|----5--|
A|--3----|  A|----3--|  A|----5--|
E|-------|  E|--1----|  E|--3----|

Verse

(just bass and drums)

You never ever leave my mind
Sweet, sweet Madeline
Everytime I look into your eyes
I feel like I'm alive.

(now the guitar)

          C5             F5
'Nd I can barely make a sound,

     C5          G5
When ever you're around

                     C5              F5
'Nd you can find me hinding in the crowd

 C5        G5       C5
Next time you come to town.

(hey hey I've been waiting all the Day!)


Chorus (play this twice)
              C5          F5
Every time I want to say Hello

                  C5           G5
'Nd every time I want to stay, I go

                    C5               F5
Can't ever find the words to let you know

               C5             F5
Sometimes you play my mind a million times


Wish I could somehow let you know
That all the way from here to Mexico
You're the one and only girl for me
HeHe, tu es un, bonjour, Oui, Oui (Oui, Oui!)

And my tongue gets tied so quick
I get so nervous I'm feeling sick
And turned into the world's worst Romeo
Every time I try to say Hello

(just dtums)
You're so fine. Been on my Mind. get nervous every time I see you hop online

Chorus (x3)

kazoo part (sorry if this is the wrong spelling)

Key change!

This part is fairly simple.  It only plays the Chorus.  Just substitute these chords for 
once used above:

    C5                 D5
e|-------|         e|-------|
B|-------|         B|-------|
G|----5--| Becomes G|----7--|
D|----5--|         D|----7--|
A|--3----|         A|--5----|
E|-------|         E|-------|

    F5                 G5
e|-------|         e|-------|
B|-------|         B|-------|
G|-------| Becomes G|-------|
D|----3--|         D|----3--|
A|----3--|         A|----3--|
E|--1----|         E|--1----|

             and
    G5                 A5
e|-------|         e|-------|
B|-------|         B|-------|
G|-------| Becomes G|-------|
D|----5--|         D|----7--|
A|----5--|         A|----7--|
E|--3----|         E|--5----|

play Chorus twice, and at the end, one strong D5
            
Submit corrections

comments powered by Disqus
↑ Back to top | Hawk Nelson Tabs for Hello. Lyrics for acoustic guitar and electric guitar. Tablatures and chords are parodies/interpretations of the original songs. You may use it for private study, scholarship, research or language learning purposes only