» » »

Hawk Nelson, Hello Bass tabs (ver.1)

Artists:  A B C D E F G H I J K L M N O P Q R S T U V W X Y Z # 

Hello Bass tabs (ver.1)

Hawk Nelson Tabs
 Rating:
4/5 (4 votes)
Hello lessons Tabs too difficult? Try these video lessons and learn fast
                tempo=150
-=16 note

INTRO:
come in with drums

G|----------------|----------------|----------------|----------------|
D|5---4---2-------|----------------|----------------|----------------|
A|------------5---|3---3---3---3---|----------------|3---3---3---3---|
E|----------------|----------------|1---1---1---1---|----------------|

G|----------------|----------------|----------------|----------------|
D|5---5---5---5---|----------------|----------------|----------------|
A|----------------|3---3---3---3---|----------------|----------------|
E|----------------|----------------|1---1---1---1---|5---5---5---5---|

G|----------------|
D|----------------|
A|----------------|
E|3---3---3---3---|

VERSE:
G|----------------|----------------|----------------|----------------|
D|----------------|3---3---3--33---|----------------|5---5---5---3---|
A|3---3---3---3--3|----------------|3---3---3---3--3|----------------|
E|----------------|----------------|----------------|----------------|

G|----------------|----------------|----------------|----------------|
D|----------------|3---3---3--33---|--------55-----5|----------------|
A|3---3---3---3--3|----------------|33--------------|3---3---3---3---|
E|----------------|----------------|----------------|----------------|

G|----------------|----------------|----------------|----------------|
D|----------------|3---3---3--33---|----------------|5---5---5---7---|
A|3---3---3---3--3|----------------|3---3---3---3--3|----------------|
E|----------------|----------------|----------------|----------------|

G|----------------|----------------|----------------|-----------------|
D|----------------|3---3---3--33---|--------55-----5|-----------------|
A|3---3---3---3--3|----------------|33--------------|3---3---3---3\---|
E|----------------|----------------|----------------|-----------------|

NO BASS IN PRECHORUS

CHORUS(x2)

G|----------------|----------------|--------------|-------------------|
D|----------------|3---3---3---3---|--------------|-------------------|
A|3---3---3---3---|----------------|3---3---3---3/|10---10---10---8---|
E|----------------|----------------|--------------|-------------------|

G|----------------|----------------|----------------|----------------|
D|----------------|----------------|----------------|----------------|
A|3---3~----------|----------------|----------------|----------------|
E|----------------|1---1~----------|5---5~----------|3---3~----------|

VERSE 2

G|----------------|----------------|----------------|----------------|
D|----------------|----------------|----------------|----------------|
A|3---3-------3--3|----------------|3---3-------3--3|--------3---3---|
E|----------------|1---1-------1--1|----------------|3---5-----------|

G|----------------|5---7---9---5---|5---------------|----------------|
D|3---5---3---2--3|----------------|--------55------|--------/10-----|
A|----------------|----------------|----------------|33--------------|
E|----------------|----------------|----------------|----------------|


G|----------------|----------------|----------------|----------------|
D|----------------|3---3---3--33---|----------------|5---5---5---3---|
A|3---3---3---3--3|----------------|3---3---3---3--3|----------------|
E|----------------|----------------|----------------|----------------|

G|----------------|----------------|-----------------|--------------------|
D|----------------|3---3---3--33---|--------55-----5/|10--10--10~\--------|
A|3---3---3---3--3|----------------|33---------------|--------------------|
E|----------------|----------------|-----------------|--------------------|

NO BASS IN PRECHORUS

CHORUS(x2)

G|----------------|----------------|--------------|-------------------|
D|----------------|3---3---3---3---|--------------|-------------------|
A|3---3---3---3---|----------------|3---3---3---3/|10---10---10---8---|
E|----------------|----------------|--------------|-------------------|

G|----------------|----------------|----------------|----------------|
D|----------------|----------------|----------------|----------------|
A|3---3~----------|----------------|----------------|----------------|
E|----------------|1---1~----------|5---5~----------|3---3~----------|

BRIDGE-LIKE THING

G|----------------|----------------|----------------|----------------|
D|----------------|----------------|----------------|5~--------------|
A|3~--------------|----------------|3~--------------|----------------|
E|----------------|1~--------------|----------------|----------------|

G|----------------|----------------|----------------|----------------|
D|----------------|----------------|----------------|5~--------------|
A|3~--------------|----------------|----------------|----------------|
E|----------------|1~--------------|5~--------------|----------------|

G|---7575----|
D|--7----75--|fast thing right b4 the kazoo part, really fast not sure the 
A|79-------7~|xact note length and old the last e for a while
E|-----------|

KAZOO SOLO

FINAL CHORUS

G|----------------|----------------|--------------|--------------------|
D|----------------|5---5---5---5---|--------------|--------------------|
A|5---5---5---5---|----------------|5---5---5---5/|12---12---12---10---|
E|----------------|----------------|--------------|--------------------|

G|----------------|----------------|----------------|----------------|
D|----------------|----------------|----------------|----------------|
A|5---5---5---5---|----------------|----------------|----------------|
E|----------------|3---3---3---3---|7---7---7---7---|5---5---5---5---|


G|----------------|----------------|--------------|--------------------|
D|----------------|5---5---5---5---|--------------|--------------------|
A|5---5---5---5---|----------------|5---5---5---5/|12---12---12---10---|
E|----------------|----------------|--------------|--------------------|

G|----------------|----------------|----------------|----------------|
D|----------------|----------------|----------------|----------------|
A|5---5~----------|----------------|----------------|----------------|
E|----------------|3---3~----------|7---7~----------|5---5~----------|

G|-----------------|
D|-----------------|
A|5~~~-------------|
E|-----------------|

Well there it is, i worked hard and got this plz rate
            
Submit corrections

comments powered by Disqus
↑ Back to top | Hawk Nelson Bass for Hello. Lyrics for acoustic guitar and electric guitar. Tablatures and chords are parodies/interpretations of the original songs. You may use it for private study, scholarship, research or language learning purposes only