» » »

Head On Collision Tabs (ver.2)

Artists:  A B C D E F G H I J K L M N O P Q R S T U V W X Y Z # 

Head On Collision Tabs (ver.2)

Hawk Nelson
Rating:
4/5 (7 votes)

Hard to play? Try these video lessons and learn fast.
                This is one of my favorite Hawk Nelson song.

Intro (clean)
       B               F#              E
e|-------------------------------------------------------------------------|
B|-------------------------------------------------------------------------|
G|------4---------------4---------------4----------------------------------|
D|---4----4---x2-----4----4--x2------4----4--x2----------------------------|
A|-2-----------------------------------------------------------------------|
E|-----------------2---------------0---------------------------------------|


Pre-Chorus

      B     F#    E
e|---------------------------------------------------------------------------|
B|---------------------------------------------------------------------------|
G|----4----------------------------------------------------------------------|
D|----2------4-----2---------------------------------------------------------|
A|----2------2-----2---------------------------------------------------------|
E|-----------2-----0---------------------------------------------------------|


Chorus (distorted)

  B    F#   G#   F#   B   F#   E    G#   B   F#   G#   F#  B   F#  E  F#
e|---------------------------------------------------------------------------|
B|---------------------------------------------------------------------------|
G|4-------------------4------------------4-----------------4-----------------|
D|2----4----6----4----2----4----2----6---2----4----6---4---2---4----2---4----|
A|2----2----4----2----2----2----2----4---2----2----4---2---2---2----2---2----|
E|-----2----4----2---------2----0----4--------2----4---2-------2----0---2----|


Bridge (distorted)

    G#    B
e|-------------------------------------------------------------------------|
B|-------------------------------------------------------------------------|
G|-------------------------------------------------------------------------|
D|---6-----9---------------------------------------------------------------|
A|---4-----7---------------------------------------------------------------|
E|---4-----7---------------------------------------------------------------|

Please feel free to leave comments and corrections.
            
Hard to play? Try these video lessons and learn fast. | Correct




comments powered by Disqus
↑ Back to top | Tablatures and chords are parodies/interpretations of the original songs. You may use it for private study, scholarship, research or language learning purposes only