» » »

From Underneath Tabs (ver.1)

Artists:  A B C D E F G H I J K L M N O P Q R S T U V W X Y Z # 

From Underneath Tabs (ver.1)

Hawk Nelson
Rating:
3/5 (3 votes)

Hard to play? Try these video lessons and learn fast.
                This tab will be kinda tough in transitions for some of you guitarists out there. I've
played this to the song and it sounds about 98%.So if you think that it doesnt sound
right i'm sure you just haven't got it yet,
gimme some feed back! Good Luck and Never stop playing!
P.S : Yes I own a Taylor!!! ^_^


Intro (Clean)or(Acoustic)
Standard Tuning E-A-D-G-B-E

E|-----------------------------------------------|    Note:This is played fast
B|-----------------------------------------------|  First bar is correlated to
G|-4---4---4---4----x-x--4-4-4-4-4-4-4-4-4--x-x--|  second one and so on. I put
D|-4-4-4-4-4-4-4-4--x-x--1-1-1-2-2-2-4-4-4--x-x--|  strokes on there to mainly
A|-2-2-2-2-2-2-2-2--x-x--x-x-x-x-x-x-2-2-2--x-x--|  show the quick down-up
E|-x-x-x-x-x-x-x-x--x-x--x-x-x-x-x-x-x-x-x--x-x--|  stroke he plays between
   ^ ^ ^ ^ ^ ^ ^ ^  ^ v   ^ ^ ^ ^ ^ ^ ^ ^ ^ ^ v   some chords

E|-----------------------------------------|    Note:First part 8x's with a
B|-----------------------------------------|    quick down stroke between.
G|-----------------------------------------|
D|-6---6---6---6----x-x--6-6-6-6-6-6-4-4-4-|
A|-6-6-6-6-6-6-6-6--x-x--6-6-6-7-7-7-6-6-6-|
E|-4-4-4-4-4-4-4-4--x-x--4-4-4-4-4-4-4-4-4-|
   ^ ^ ^ ^ ^ ^ ^ ^  ^ v  ^ ^ ^ ^ ^ ^ ^ ^ ^
E|-----------------------------------|
B|-----------------------------------|
G|-----------------------------------|
D|-4---4---4---4-----4-4-4-2-2-2-2-2-|
A|-4-4-4-4-4-4-4-4---4-4-4-4-4-4-6-6-|
E|-2-2-2-2-2-2-2-2---2-2-2-2-2-2-2-2-|
   ^ ^ ^ ^ ^ ^ ^ ^   ^ ^ ^ ^ ^ ^ ^ ^
E|-----------------------------|             Note: Fig 1a is played as part of
B|-----------------------------|             intro and first time of 1st verse
G|-1-1-1-1-1-1-1-1-1-1-1-1-1-1-|             On second time of first verse you
D|-2-2-2-2-2-2-2-2-4-4-4-4-4-4-|   Fig 1(a)  play Fig 2a. and go into
A|-2-2-2-2-2-2-2-2-2-2-2-2-2-2-|             prechorus
E|-0-0-0-0-0-0-0-0-x-x-x-x-x-x-|
   ^ ^ ^ ^ ^ ^ ^ ^ ^ ^ ^ ^ ^ ^
E|-----------------------------------|
B|-----------------------------------|
G|-1---------------------------------|
D|-2-8x(times)-4---------------------| Fig 2(a) into prechorus
A|-2-----------4--8x(times)----------|
E|-------------2---------------------|
   ^           ^
Prechorus

E|---------------------------------------------------------|
B|-------------------------------------------------------0-|
G|------4-----4----------4-----4-----------4------4------6-|
D|--4-4--4-----4-4---4-4--4-----4-4------4--4------4-4---6-|
A|-2---2-----2--2---2---2-----2--2------2-2------2--2----4-|
E|-------------------------------------4-----------------x-|
   ^^ ^^v^   ^vv^v  ^^ ^^v^   ^vv^v    ^^v^vv    ^vv^v   ^


 1st Chorus (second slighty different)
E|---------------------------------------------|   (Listen to song for count)
B|----0-(<-optional)---------------------------|
G|----9----------------------------------------|   2x then back to verse 2,same
D|-6--9-------------9--4-----------------------|   as verse 1.
A|-6--7-------------9--4-----------------------|   Note: Optional open note,its
E|-4--x-------------7--2-----------------------|   not played but sounds nice.
   ^  ^             ^  ^
 2nd Chorus (after 2nd verse)
E|------------------------------------------------|       Note: Chorus is played 2x.
B|----0-(<-optional)------------------------------|       The second time you play
G|----9-------------------------------------------|       the chorus the chord in
D|-6--9-------------9--(6)-7----------------------| 2x  parenthesis is added.
A|-6--7-------------9--(6)-7----------------------|
E|-4--x-------------7--(4)-5----------------------|
   ^  ^             ^   ^  ^
 Outro
E|---------------------------------------------------------|
B|-------------------------------------------------------0-|
G|------4-----4----------4-----4-----------4------4------6-|
D|--4-4--4-----4-4---4-4--4-----4-4------4--4------4-4---6-|
A|-2---2-----2--2---2---2-----2--2------2-2------2--2----4-|
E|-------------------------------------4-----------------x-|
   ^^ ^^v^   ^vv^v  ^^ ^^v^   ^vv^v    ^^v^vv    ^vv^v   ^

This is actually my first tab in the 12 years i've been playing, so hopefully itturned out ok!
            
Hard to play? Try these video lessons and learn fast. | Correct




comments powered by Disqus
↑ Back to top | Tablatures and chords are parodies/interpretations of the original songs. You may use it for private study, scholarship, research or language learning purposes only