» » »

Fourteen Tabs (ver.1)

Artists:  A B C D E F G H I J K L M N O P Q R S T U V W X Y Z # 

Fourteen Tabs (ver.1)

Hawk Nelson
Rating:
3/5 (4 votes)

Tabs too difficult? Try these video lessons and learn fast.
                This is the guitar solo in the middle of the song 
It just repeats throughout
enjoy

()= muted or quiter

e-------------------------------------------------------------------|
B--12-12-12-12-12-13-12-----------------15-13-12-10-8-8-8-8-8-10-12-|
G-----------------------(12)-11-11-11-11----------------------------|
D-------------------------------------------------------------------|
A-------------------------------------------------------------------|
E-------------------------------------------------------------------|


e-------------------------------------------------------------------|
B--(6)-5-5-5-5-5-5-5-7-8--------------------------------------------|
G-------------------------------------------------------------------|
D-------------------------------------------------------------------|
A-------------------------------------------------------------------|
E-------------------------------------------------------------------|

or

e-------------------------------------------------------------------|
B--12-12-12-12-12-13-12----------------15-13-12-10-8-8-8-8-8-10-12--|
G-----------------------11-11-11-11-11------------------------------|
D-------------------------------------------------------------------|
A-------------------------------------------------------------------|
E-------------------------------------------------------------------|


e-------------------------------------------------------------------|
B--5-5-5-5-5-5-5-5-7-8----------------------------------------------|
G-------------------------------------------------------------------|
D-------------------------------------------------------------------|
A-------------------------------------------------------------------|
E-------------------------------------------------------------------|
            
Tabs too difficult? Try these video lessons and learn fast.




comments powered by Disqus
↑ Back to top | Tablatures and chords are parodies/interpretations of the original songs. You may use it for private study, scholarship, research or language learning purposes only