» » »

Hawk Nelson, Everything You Ever Wanted Bass tabs (ver.1)

Artists:  A B C D E F G H I J K L M N O P Q R S T U V W X Y Z # 

Everything You Ever Wanted Bass tabs (ver.1)

Hawk Nelson Tabs
 Rating:
4.5/5 (8 votes)
Everything You Ever Wanted lessons Tabs too difficult? Try these video lessons and learn fast
1
                -------------------------------------------------------------------------------
-------------------------------------------------------------------------------


Tuning: Standard (EADG)

Order: Intro V1 PC C1 V2(x2) PC C2 B C3 C4

Intro
G|----------------------------------------------------------------------------|
D|----------------------------------------------------------------------------|
A|--33333333-00000000---------------------------------------------------------|
E|--------------------11111111-3333323----------------------------------------|

Verse 1
G|----------------------------------------------------------------------------|
D|----------23333333----------3/55555555----------33333333----------55555555--|
A|--3333333----------75555555------------33333333----------55555555-----------|
E|----------------------------------------------------------------------------|

Pre-Chorus
G|----------------------------------------------------------------------------|
D|--2~2222-3~3333-2~2222-33335555\--------------------------------------------|
A|----------------------------------------------------------------------------|
E|----------------------------------------------------------------------------|

Chorus 1
G|-------------------------------------------------------------------------5~-|
D|--------------------33333333-5555555--------------------33333334-555555-----|
A|--33333333-00000000-------------------23333333-00000023---------------------|
E|----------------------------------------------------------------------------|

Verse 2 (x2)
G|----------------------------------------------------------------------------|
D|----------23333333----------3/55555555---------23333333----------3/55555555-|
A|--3333333----------75555555------------3333333----------75555555------------|
E|----------------------------------------------------------------------------|

Chorus 2
G|----------------------------------------------------------------------------|
D|--------------------33333333-5555555-------------------33333334-55555555----|
A|--33333333-00000000------------------23333333-00000023----------------------|
E|----------------------------------------------------------------------------|

Bridge
G|----------------------------------------------------------------------------|
D|----------------------------------------------------------------------------|
A|--00000000------------------------02300000000------------------------0233~--|
E|-----------33333333-1111111111111-------------33333333-1111111111111--------|

Chorus 3
G|----------------------------------------------------------------------------|
D|--------------------33333333-55555555-------------------333333334------5555-|
A|--33333333-00000000-------------------33333333-00000023---------------------|
E|------------------------------------------------------------------3333------|

Chorus 4
G|----------------------------------------------------------------------------|
D|--------------------33333333-55555555-------------------33333333-55555555---|
A|--33333333-00000023-------------------33333333-00000023-------------------3~|
E|----------------------------------------------------------------------------|


| /  slide up
| \  slide down
| h  hammer-on
| p  pull-off
| ~  vibrato
| +  harmonic
| x  Mute note
===============================================================================
            
Submit corrections

comments powered by Disqus
↑ Back to top | Hawk Nelson Bass for Everything You Ever Wanted. Lyrics for acoustic guitar and electric guitar. 1 Tablatures and chords are parodies/interpretations of the original songs. You may use it for private study, scholarship, research or language learning purposes only