>
 >
Everything You Ever Wanted

Everything You Ever Wanted Guitar Tabs

Hawk Nelson - Everything You Ever Wanted chords, tabs, tablatures, lyrics

Guitar lessons | Add/correct | Request | Top 50 tabs Artists:  A B C D E F G H I J K L M N O P Q R S T U V W X Y Z 0-9

Everything You Ever Wanted Guitar Tabs – Hawk Nelson

CD, Sheet music, Poster

Do you like Everything You Ever Wanted? Share with your friends now
Bass TabsChordsChords v2Chords v3TabsTabs v2Ukulele
intro: guitar 1
/e-----3-3-------3-3-------3-3-------3-3-------3-3-------3-3---->\
|B--------3---------3---------3---------3---------3---------3--->|
|G--5-5-----5-5-5-----5-5-5-----5-5-5-----5-5-5-----5-5-5-----5->|
|D---5---------5---------5---------5---------5---------5-------->|
|A-3---------3---------3---------0------------------------------>|
|D-----------------------------------------3---------5---------->|
|                                                                |
|intro: guitar 2                                                 |
|e-------------------------------------------------------------->|
|B-------------------------------------------------------------->|
|G---------------------5-5-5-5-5-2-2-2-2-2---------------------->|
|D---------------------5-5-5-5-5-2-2-2-2-2-3-3-3-3-3-5-5-5-5-5-->|
|A---------------------3-3-3-3-3-0-0-0-0-0-3-3-3-3-3-5-5-5-5-5-->|
\D-----------------------------------------3-3-3-3-3-5-5-5-5-5-->/

verse 1: guitar 1
/e----------------------------------------------------------------->\
|B----------------------------------------------------------------->|
|G-5-5-5-5-5-5-5-5------------------------------------------------->|
|D-5-5-5-5-5-5-5-5-3-3-3-3-3-3-3-3-0-0-0-0-0-0-0-0-5-5-5-5-5-5-5-5->|
|A-3-3-3-3-3-3-3-3-3-3-3-3-3-3-3-3-0-0-0-0-0-0-0-0-5-5-5-5-5-5-5-5->|
|D-----------------3-3-3-3-3-3-3-3-0-0-0-0-0-0-0-0-5-5-5-5-5-5-5-5->|
|  * * * * * * * * * * * * * * * * * * * * * * * * * * * * * * * *  |
|verse 1: guitar 2                                                  |
|e----------------------------------------------------------------->|
|B-3~-------------------------------------------------------------->|
|G-5~-------------------------------------------------------------->|
|D-5~-------------------------------------------------------------->|
|A-3~-------------------------------------------------------------->|
\D----------------------------------------------------------------->/
I walk the line leave it all behind Iíve been waiting forever

verse 1: guitar 2
e------------------------------------------------------------------>
B---------33--------------33--------------33--------------33------->
G-----33------33------33------33------33------33------33------33--->
D---55--55--55--55--55--55--55--55--55--55--55--55--55--55--55--55->
A-33--------------------------------------------------------------->
D-----------------33--------------00--------------55--------------->
  ****  **  **  ******  **  **  ******  **  **  ******  **  **  **
lets go back in time when I could read your mind still Iíve been waiting

pre-chorus: guitar 1
e----------------------------------------------------------------->
B----------------------------------------------------------------->
G----------------------------------------------------------------->
D-2-2-2-2-2-2-2-2-5-5-5-5-5-5-5-5-2-2-2-2-2-2-2-2-5-5-5-5-5-5-5-5->
A-2-2-2-2-2-2-2-2-3-3-3-3-3-3-3-3-2-2-2-2-2-2-2-2-3-3-3-3-3-3-3-3->
D-2-2-2-2-2-2-2-2-3-3-3-3-3-3-3-3-2-2-2-2-2-2-2-2-3-3-3-3-3-3-3-3->
  * * * * * * * * * * * * * * * * * * * * * * * * * * * * * * * *
it took the seasons going by to know itís not my fault

chorus: guitar 2
e---------------------------------------------------------------------->
B-----------------------------------------------------------------3~--->
G-5-5-5-5-2-2-2-2-----------------5-5-5-5-2-2-2-2-----------------5~--->
D-5-5-5-5-2-2-2-2-3-3-3-3-5-5-5-5-5-5-5-5-2-2-2-2-3-3-3-3-5-5-5-5-5~--->
A-3-3-3-3-0-0-0-0-3-3-3-3-5-5-5-5-3-3-3-3-0-0-0-0-3-3-3-3-5-5-5-5-3~--->
D-----------------3-3-3-3-5-5-5-5-----------------3-3-3-3-5-5-5-5------>
I tried to be perfect tried to be honest tried to be anything that you ever
wanted I tried to be stronger tried to be smarter tried to be everything
but you

verse 2: bass
its been so long since youíve been home I used to wait up forever

verse 2: guitar 1
e----------------------------------------------------------------->
B----------------------------------------------------------------->
G-5-5-5-5-5-5-5-5------------------------------------------------->
D-5-5-5-5-5-5-5-5-3-3-3-3-3-3-3-3-0-0-0-0-0-0-0-0-5-5-5-5-5-5-5-5->
A-3-3-3-3-3-3-3-3-3-3-3-3-3-3-3-3-0-0-0-0-0-0-0-0-5-5-5-5-5-5-5-5->
D-----------------3-3-3-3-3-3-3-3-0-0-0-0-0-0-0-0-5-5-5-5-5-5-5-5->
  * * * * * * * * * * * * * * * * * * * * * * * * * * * * * * * *
I used to say a prayer wishing you were there Iím still waiting

verse 2: guitar 2
e------------------------------------------------------------------>
B---------33--------------33--------------33--------------33------->
G-----33------33------33------33------33------33------33------33--->
D---55--55--55--55--55--55--55--55--55--55--55--55--55--55--55--55->
A-33--------------------------------------------------------------->
D-----------------33--------------00--------------55--------------->
  ****  **  **  ******  **  **  ******  **  **  ******  **  **  **
you told me once youíd show up but I fell for that before I fell to pieces

verse 2: guitar 2
e------------------------------------------------------------------>
B---------33--------------33--------------33--------------33------->
G-----33------33------33------33------33------33------33------33--->
D---55--55--55--55--55--55--55--55--55--55--55--55--55--55--55--55->
A-33--------------------------------------------------------------->
D-----------------33--------------00--------------55--------------->
  ****  **  **  ******  **  **  ******  **  **  ******  **  **  **
when I woke up to no one just a picture of Jesus and a house left in pieces

---REPEAT PRE-CHORUS

---REPEAT CHORUS

bridge: guitar 1
/e---------3-3-------------3-3-------------3-3--------------------->\
|B------------5-5-------------5-5-------------5-5-3---3/5\3--1----->|
|G-------5---------------5---------------5------------------------->|
|D----------------------------------------------------------------->|
|A----------------------------------------------------------------->|
|D----------------------------------------------------------------->|
|                                                                   |
|bridge: guitar 2                                                   |
|e----------------------------------------------------------------->|
|B----------------------------------------------------------------->|
|G----------------------------------------------------------------->|
|D-7-7-7-7-7-7-7-7-5-5-5-5-5-5-5-5-3-3-3-3-3-3-3-3-3-3-3-3-3-5-5-5->|
|A-7-7-7-7-7-7-7-7-5-5-5-5-5-5-5-5-3-3-3-3-3-3-3-3-3-3-3-3-3-5-5-5->|
\D-7-7-7-7-7-7-7-7-5-5-5-5-5-5-5-5-3-3-3-3-3-3-3-3-3-3-3-3-3-5-5-5->/
I want you I need you I want to believe you

bridge: guitar 1
/e---------3-3-------------3-3-------------3-3--------------------->\
|B------------5-5-------------5b5-------------5-5-3---3/5\1~------->|
|G-------5---------------5---------------5------------------------->|
|D----------------------------------------------------------------->|
|A----------------------------------------------------------------->|
|D----------------------------------------------------------------->|
|                                                                   |
|bridge: guitar 2                                                   |
|e----------------------------------------------------------------->|
|B----------------------------------------------------------------->|
|G----------------------------------------------------------------->|
|D-7-7-7-7-7-7-7-7-5-5-5-5-5-5-5-5-3-3-3-3-3-3-3-3-3-3-3-3-3-5-5-5->|
|A-7-7-7-7-7-7-7-7-5-5-5-5-5-5-5-5-3-3-3-3-3-3-3-3-3-3-3-3-3-5-5-5->|
\D-7-7-7-7-7-7-7-7-5-5-5-5-5-5-5-5-3-3-3-3-3-3-3-3-3-3-3-3-3-5-5-5->/
I want you I need you I want to believe you

chorus 2: guitar 1
e------------------------------------------------------------------>
B------------------------------------------------------------------>
G-5~---------------5~--------------5~--------------7~-------------->
D-5~---------------5~--------------5~--------------7~-------------->
A-3~---------------0~--------------3~--------------5~-------------->
D----------------------------------3~--------------5~-------------->
I tried to be perfect tried to be honest tried to be anything but you

---REPEAT CHORUS 2x





Comments


Popular Hawk Nelson tabs & chords
Hello 3 Bass Tabs
Something On My Mind Bass Tabs
I Still Miss You 1 Chords
Things We Go Through Chords
Bring 'em Out 1 Tabs
Crazy Love Tabs
I Heard The Bells On Christmas Day Tabs
Something On My Mind 2 Tabs
Everything You Ever Wanted Ukulele
Shaken Ukulele


Song lyrics



↑ Back to top | Tablatures and chords are parodies/interpretations of the original songs. You may use it for private study, scholarship, research or language learning purposes only
© 2014 AZChords.com Contact us | Privacy policy | DMCA | Add/correct tabs | Request tabs | Top 50 tabs