>
 >
Bring 'em Out 2

Bring 'em Out 2 Guitar Tabs

Hawk Nelson - Bring 'em Out 2 chords, tabs, tablatures, lyrics

Guitar lessons | Add/correct | Request | Top 50 tabs Artists:  A B C D E F G H I J K L M N O P Q R S T U V W X Y Z 0-9

Bring 'em Out 2 Guitar Tabs – Hawk Nelson

CD, Sheet music, Poster

Do you like Bring 'em Out 2? Share with your friends now
Bass TabsTabsTabs v2Tabs v3
To tune to drop C#:
Tune all strings down half a step EXCEPT the low E string... The low E string is tuned 
one and a half steps.

Pretty sure this is 100% correct.  All of Hawk Nelson's songs are in Drop C#, not 
most people know...

Palm Mute= ...
Bend= b
Return Bend= rb
Hammer On= h
Pull Off= p
Slide= /

Intro:
Drums- Then:
D#[--------------]
A#[--------------]
F#[--5-----5-----]
C#[--5-----5-----]
G#[--3-----3-----]
C#[--------------]

D#[-----------------------]
A#[-----------------------]
F#[--5-----5-----5--------]
C#[--5--3--5--6--5--3--5--]     x2
G#[--3--3--3--6--3--3--5--]
C#[-----3-----6-----3--5--]

Verse:
D#[------------------]
A#[------------------]
F#[----5----5--------]
C#[--3-5----5--3--5--]
G#[--3-3----3--3--5--]
C#[--3---------3--5--]

D#[-------------------------]
A#[-------------------------]
F#[----5----5--------7-7-7--]
C#[--3-5----5--3--5-5-5-5---]
G#[--3-3----3--3--5---------]
C#[--3---------3--5---------]

D#[------------------]
A#[------------------]
F#[----5----5--------]
C#[--3-5----5--3--5--]     x2
G#[--3-3----3--3--5--]
C#[--3---------3--5--]

Pre-Chorus:
D#[-----------------------]
A#[-----------------------]
F#[--5--5--5----5--10--5--]
C#[--5--5--5----5--10--5--]
G#[--3--3--3----3--8---3--]
C#[-----------------------]

Chorus:
D#[-----------------------]
A#[-----------------------]
F#[--5-----------5--------]
C#[--5--3--5--3--5--3--5--]
G#[--3--3--5--3--3--3--5--]
C#[-----3--5--3-----3--5--]

Post-Chorus:
Drums- Then:
D#[----------------------]
A#[----------------------]
F#[--5---------5---------]
C#[--5----3----5----6----]
G#[--3----3----3----6----]
C#[-------3---------6----]
     ....................

Verse 2:
D#[------------------]
A#[------------------]
F#[----5----5--------]
C#[--3-5----5--3--5--]
G#[--3-3----3--3--5--]
C#[--3---------3--5--]

D#[-------------------------]
A#[-------------------------]
F#[----5----5--------7-7-7--]
C#[--3-5----5--3--5-5-5-5---]
G#[--3-3----3--3--5---------]
C#[--3---------3--5---------]

D#[------------------------]
A#[------------------------]
F#[----5--5--5--5----------]
C#[--3-5--5--5--5--3--5----]     x2
G#[--3-3--3--3--3--3--5----]
C#[--3-------------3--5----]

Pre-Chorus

Chorus 2:
D#[-------------------------]
A#[-------------------------]
F#[--5-----------5----------]
C#[--5--3--5--3--5--3--5----]     x3
G#[--3--3--5--3--3--3--5----]
C#[-----3--5--3-----3--5----]

D#[------------------------]
A#[------------------------]
F#[--5---------------------]
C#[--5--3--5--3--3----5----]
G#[--3--3--5--3--3----5----]
C#[-----3--5--3--3----5----]

Bridge:
D#[--------------------------------------]
A#[--------------------------------------]
F#[--------------------------------------]
C#[--------------------------------------]
G#[--3--------------5----3---------5-----]
C#[-------3----5--------------3---------5]

D#[----------------------------------------]
A#[----------------------------------------]
F#[--5--------------7----5---------7-------]
C#[--5----3----5----5----5----3----7----5--]
G#[--5----3----5----5----3----3----5----5--]
C#[-------3----5--------------3---------5--]

Solo:
D#[-------------------------------7-8-10--8-8-8-8--10-12h13p12/10-10-10--]
A#[---8-8-8-----5brb/3--8-8-8------------8-8-8-8-8-------------15-15-15--]
F#[--5-5-5-5-5/5-------5-5-5-5-5/5---------------------------------------]
C#[----------------------------------------------------------------------]
G#[----------------------------------------------------------------------]
C#[----------------------------------------------------------------------]

D#[--8-7/8-10-8--]
A#[--------------]
F#[--------------]
C#[--------------]
G#[--------------]
C#[--------------]

Chorus 3:
Bass & Drums- Then:
D#[-----------------------]
A#[-----------------------]
F#[--7-----5-----5--------]
C#[--7--3--5--6--5--3--5--]
G#[--5--3--3--6--3--3--5--]
C#[-----3-----6-----3--5--]

Ending:
D#[-----------------------]
A#[-----------------------]
F#[--5-----5-----5--------]
C#[--5--3--5--6--5--3--5--]     x2
G#[--3--3--3--6--3--3--5--]
C#[-----3-----6-----3--5--]

D#[--------------------]
A#[--------------------]
F#[--5-----5-----5-----]
C#[--5--3--5--6--5--3--]     x2
G#[--3--3--3--6--3--3--]
C#[-----3-----6-----3--]





Comments


Popular Hawk Nelson tabs & chords
I Still Miss You 2 Bass Tabs
I Still Miss You 2 Chords
My Next Breath 1 Chords
Take Me 5 Chords
California 4 Tabs
Crazy Love Tabs
Is Forever Enough Tabs
Lets Dance Intro Tabs
Things We Go Through Intro Tabs
Zero 1 Tabs


Song lyrics



↑ Back to top | Tablatures and chords are parodies/interpretations of the original songs. You may use it for private study, scholarship, research or language learning purposes only
© 2014 AZChords.com Contact us | Privacy policy | DMCA | Add/correct tabs | Request tabs | Top 50 tabs