» » »

Have Heart, Hard Bark On The Family Tree Tabs (ver.1)

Artists:  A B C D E F G H I J K L M N O P Q R S T U V W X Y Z # 

Hard Bark On The Family Tree Tabs (ver.1)

Have Heart Tabs
Rating:
5/5 (1 vote)
Hard Bark On The Family Tree lessons Tabs too difficult? Try these video lessons and learn fast
                Intro

e-----------------------------------------------------|
b-----------------------------------------------------|
g-----------------------------------------------------|
d-9--9-9-9-9-9-10----------9--9-9-10-10-10-10---------|
a-7--7-7-7-7-7-7-----------7--7-7-7--7--7--7----------|
e--------8-8-8-8---------------------------8----------|

verse

e-----------------------------------------------------|
b-----------------------------------------------------|
g-----------------------------------------------------|
d-9-9-9-----------------------------------------------|
a-7-7-7--2-2--2-2--4-4-4-4-5-5-5----------------------|
e--------0-0--0-0--2-2-2-2-3-3-3----------------------|

e-----------------------------------------------------|
b-----------------------------------------------------|
g-----------------------------------------------------|
d-9-9-9------------5-5-5-5-2-2-2----------------------|
a-7-7-7--2-2--2-2--3-3-3-3-0-0-0----------------------|
e--------0-0--0-0-------------------------------------|

Breakdown(let ring out)

e-0----------------------------------------------------|
b-0----------------------------------------------------|
g-0----------------------------------------------------|
d-0----------------------------------------------------|
a------------------------------------------------------|
e------------------------------------------------------|

Verse #2

e------------------------------------------------------|
b------------------------------------------------------|
g------------------------------------------------------|
d-9-9-9------------------------------------------------|
a-7-7-7--2-2--2-2--2-2--2-2----------------------------|
e--------0-0--0-0--0-0--0-0----------------------------|


Order:

Intro x1
Verse x4
Intro x2
Verse x4
Breakdown x1
Verse #2 x4
            

comments powered by Disqus
↑ Back to top | Have Heart Tabs for Hard Bark On The Family Tree. Lyrics for acoustic guitar and electric guitar. Tablatures and chords are parodies/interpretations of the original songs. You may use it for private study, scholarship, research or language learning purposes only