» » »

Bostons Tabs (ver.1)

Artists:  A B C D E F G H I J K L M N O P Q R S T U V W X Y Z # 

Bostons Tabs (ver.1)

Have Heart
Rating:
4/5 (7 votes)

Hard to play? Try these video lessons and learn fast.
                g'day, i know everyone says it but this seriously is my first tab


hope it helps anyone

Bostons by 'Have Heart' 2008

0:00 - 0:20(on the last time only play the last chord for half the duration)
|------------------------------------------------0-0-0-0-0-0-----|
|------------------------------------------------0-0-0-0-0-0-----|
|---------5--------------5/4-------------5-------0-0-0-0-0-0-----|   x 4
|--2---2--5-----2-----2--5/4---2-----2---5----2--2-2-2-2-2-2-----|  
|--2---2--3-----2-----2--3/2---2-----2---3----2--3-3-3-3-3-3-----|
|--0-0-0----0-0-0-0-0-0------0-0-0-0-0------0-0------------------|
PM   .      . .   . .        .   . .        .

0:21 - 0:47  (on the third time only play the first two chords)
|--0-----------0------------------|
|--0-----------0------------------|
|--0-- x 16----4-- x 16--4-4------|
|--2-----------4---------4-4--2~--|  x 3  
|--3-----------2---------2-2--2~--|
|-----------------------------0~--|


0:47 - 1:08
|--------------------------------------------------------------------------|
|--------------------------------------------------------------------------|
|---------------777--555555555555----------------777--555555---------------|
|-222222--4\55--777--555544455544--222222--4\55--777--555544--5-555-777----|
|-222222--4\55--555--333333333333--222222--4\55--555--333333--5-555-777----|
|-000000--2\33---------------------000000--2\33---------------3-333-555----|
                                                                ...

|---------------------------------------------------------------------------|
|---------------------------------------------------------------------------|
|---------------777--555555555555----------------777--555555----------------|
|-222222--4\55--777--555544455544--222222--4\55--777--555544--5-5-44-4-4-4--|
|-222222--4\55--555--333333333333--222222--4\55--555--333333--5-5-44-4-4-4--|
|-000000--2\33---------------------000000--2\33---------------3-3-22-2-2-2--|
                                                              .   ..   .

1:08 - 1:28
|--------0~------------------|
|--------0~------------------|
|--4-----0~-----4------------|
|--4--2--2~-----4--2--2~-----|   x 2
|--2--2--3~-----2--2--2~-----|
|-----0------------0--0~-----|


1:28 - 1:59
|--0-0-0----0-0-0----0-0-0----0-0-0--|
|--0-0-0----0-0-0----0-0-0----0-0-0--|
|--0-0-0----0-0-0----0-0-0----0-0-0--|
|--2-2-2----2-2-2----2-2-2----2-2-2--| 
|--2-2-2----2-2-2----3-3-3----2-2-2--|
|--0-0-0----0-0-0-------------0-0-0--|

|--0-0-0~---0-0-0~---|
|--0-0-0~---0-0-0~---|
|--0-0-0~---0-0-0~---|
|--2-2-2~---2-2-2~---|
|--2-2-2~---3-3-3~---|
|--0-0-0~------------|


1:59 - 2:38
|--0---0----|                        |--2--|
|--0---0----| repeat these chords    |--0--|  
|--0---0----| occasionally playing   |--0--|
|--2---2----| this chord instead     |--2--|
|--2---3----|                        |--3--|
|--0--------|                        |-----|


2:38 - 2:48
|--0-0-0-----0-0-0~--|                        
|--0-0-0-----0-0-0~--|   
|--0-0-0-----0-0-0~--| 
|--2-2-2-----2-2-2~--| 
|--2-2-2-----3-3-3~--|                        
|--0-0-0-------------|
            
Hard to play? Try these video lessons and learn fast. | Correct




comments powered by Disqus
↑ Back to top | Tablatures and chords are parodies/interpretations of the original songs. You may use it for private study, scholarship, research or language learning purposes only