» » »

Haunted, Well Of Souls Tabs (ver.1)

Artists:  A B C D E F G H I J K L M N O P Q R S T U V W X Y Z # 

Well Of Souls Tabs (ver.1)

Haunted Tabs
Rating:
0/5 (0 votes)
Well Of Souls lessons Tabs too difficult? Try these video lessons and learn fast
                Band- haunted
Song- Well Of Souls

Tuning: Drop D down a half step

Riff A x4                                          a2         a3
|-------------------------------------------------|----------|-----|
|-------------------------------------------------|----------|-----|
|-------------------------------------------------|----------|-----|
|-------------------------------------------------|----------|-----|
|------7--8--5--7--8--12--11------7--8--5--3--2---|-2--3--1--|--2--|
|--0*-------------------------0*------------------|-0--0--0--|--0--|

*let the two 0s in this riff ring until next 0 is played*
*a2 played every other ending, and a3 is the final ending of the riff*

Riff B x2
|--------------------------------------------------------|
|--------------------------------------------------------|
|--------------------------------------------------------|
|--------------------------------------------------------|
|-----3-2-2----------2-3-2--3\4\6------3-2-2---2-3-2-----|
|--0--------3-1--0------------------0--------3--------1--|

Fill 1             Riff C
|--------------|  |-----------------------------------------------|
|--------------|  |-----------------------------------------------|
|--------------|  |-----------------------------------------------|
|--------------|  |-----------------------------------------------|
|--2--1--------|  |--3--2--- ---------2-1-3-4-3-5-6-5-6-5---------|
|--------2--0--|  |--------2---0-0000------------------------------|
                                 ....
*play Fill 1 and Riff C again*

Fill 2
|-----------------------|
|-----------------------|
|-----------------------|
|-----------------------|
|--2--1-----2--1--------|
|--------2--------2--0--|

Riff B
Fill 1
Riff C
Fill 1
Riff C
Fill 2

Chorus:
 c1                            c2                    c3           c4
|----------------------------|----------------|----|-------------|-----|
|----------------------------|----------------|----|-------------|-ph--|
|----------------------------|----------------|play|-------------|--7*-|
|----------------------------|--7--3--7--2--3-|-c1-|-7--3--2---3-|-----|
|----------------------------|--0--0--0--2--0-|----|-0--0--2---0-|-----|
|-00-2-2b-00-0--2-2b-00-000--|--5--1--5-----1-|----|-5--1----0-1-|-----|
              .          ...                                     ^gtr.2^
*c4 is played at the very end by gtr.2 and rings out*

Riff D 						  d2
|------------------------------------------------|--------------
|------------------------------------------------|--------------
|------------------------------------------------|--------------
|------------------------------------------------|--------------
|--7-8-5-7-8-12-11--7-8-5-3-2-2--7-8-5-7-8-12-11-|-7-8-5-3-2-2--
|------------------------------------------------|--------------

  ---------------------------------------------------------------------
  ---------------------------------------------------------------------
  ---------------------------------------------------------------------
  ----------------12-11--------------------------------12-10-----------
  -12-13-10-12-13--------12-13-10-8-7-7-12-13-10-12-13--------12-13-10-
  ---------------------------------------------------------------------

                    d3 (not played until solo)
  --------------|  |------------------|
  --------------|  |------------------|
  --------------|  |--------7\8/7-----|
  --------------|  |-7-8-5---------8--|
  -17/18/17-12--|  |------------------|
  --------------|  |------------------|

Solo: gtr.2
|------------------------------------------------------------------
|------------------------------------------------------------------
|--7--8--10--11--10--8--7\8/7-7------------------------------------
|-------------------------------11--9p8--13--13--9--7--8--10--12/--
|------------------------------------------------------------------
|------------------------------------------------------------------


  --------------------------|
  --------------------------|
  -16\17/15--16-15-13-15-15-|
  --------------------------|
  --------------------------|
  --------------------------|

Under Solo: gtr.1
|------------------------|
|------------------------|
|--play------------------|
|--RiffD--d3--RiffD--d2--|
|------------------------|
|------------------------|

*after the solo play Riff D x2 and d3

Riff F x2
|----------------------------------------------|
|----------------------------------------------|
|----------------------------------------------|
|----------------------------------------------|
|-------------3-2-------------------3-2--------|
|--33333411113---5\7-53--33333411113---5\7-53--|
   ............ .... ..  ............ .... ..

f2 x2
|-----------------------------------------------|
|-----------------------------------------------|
|-----------------------------------------------|
|-----------------------------------------------|gtr.1
|-------------3-2-------------------3-2---------|
|--33333411113---5\7-53--33333411113---5\7-53---|


|-----------------------------------------------|
|-----------------------------------------------|
|-----------------------------------------------|
|-----------------------------------------------|gtr.2
|-----------------------------------------------|
|--7---8---7---10---7---8---7---10--------------|

Riff G x3
|--------------------------------------------------|
|--------------------------------------------------|
|--------------------------------------------------|
|--------------------------------------------------|
|--2-2-0-0h2-3--3-2-0-3-2--2-2-0-0h2-3--3-2-0-3-2--|
|--------------------------------------------------|

Riff H
|----------------------------------------------------------------------|
|----------------------------------------------------------------------|
|----------------------------------------------------------------------|
|--3-3-3-3-4-4-4-4-5-5-5-5-4-4-4-4---3-3-3-3-4-4-4-4-5-5-5-5-4-4-4-4---|
|--5-5-5-5-6-6-6-6-7-7-7-7-6-6-6-6---5-5-5-5-6-6-6-6-7-7-7-7-6-6-6-6---|
|--3-3-3-3-4-4-4-4-5-5-5-5-4-4-4-4---3-3-3-3-4-4-4-4-5-5-5-5-4-4-4-4---|
       . .     . .     . .     . .       . .     . .     . .     . .
h2
|----------------------------------------------------------------------|
|----------------------------------------------------------------------|
|----------------------------------------------------------------------|
|----7---7---8---8---9---9---8---8-----7---7---8---8---9---9---8---8---|
|----5---5---6---6---7---7---6---6-----5---5---6---6---7---7---6---6---|
|--0-5-0-5-0-6-0-6-0-7-0-7-0-6-0-6---0-5-0-5-0-6-0-6-0-7-0-7-0-6-0-6---|

Riff D,d2
Fill 1
Riff C
Fill 1
Riff C
Fill 2
Chorus

Final Riff
|----------------------------------------------------------------|
|----------------------------------------------------------------|
|----------------------------------------------------------------|
|----------------------------------------------------------------|
|--7-8-5--2\3p0-0h2-------7-8-5--3\4/3-0---7-8-5--2\3p0-0h2------|
|-------------------3-5-------------------------------------3-5--|

Ending
|------------------------------------------------------|
|------------------------------------------------------|
|------------------------------------------------------|
|-----------------------------------------------6-7-3--|
|-----------------------------------------------4-5-1--|
|-11111211114111113-0-6--11111211114111113-0-7--4-5-1--|
            

comments powered by Disqus
↑ Back to top | Haunted Tabs for Well Of Souls. Lyrics for acoustic guitar and electric guitar. Tablatures and chords are parodies/interpretations of the original songs. You may use it for private study, scholarship, research or language learning purposes only