» » »

Victim Iced Tabs (ver.1)

Artists:  A B C D E F G H I J K L M N O P Q R S T U V W X Y Z # 

Victim Iced Tabs (ver.1)

Haunted
Rating:
0/5 (0 votes)

Hard to play? Try these video lessons and learn fast.
                Band- Haunted
Song- Victim Iced

*note*
one instruction (ie:"play riff so-and-so again")may be missing.
listen for exact instructions, in case I made a mistake. Thanks.
I am back.

Tuning: Eb

Riff A x3                        a2              B
|-------------------------------|----------|----|---------------------|
|-------------------------------|----------|----|---------------------|
|-------------------------------|----------|Play|---------------------|
|-------------------------------|----------|Riff|---------------------|
|-------------------------------|--4--3--0-|A-2x|---4-3-0-------------|
|--2-222222\6-222222\6-222222\6-|--2--1--0-|----|-2--------3p2p0-2h3--|

Riff C x2                                  *        **
|-----------------------------------------|--------|--------|
|-----------------------------------------|--------|--------|
|--------------------------------10p9h10--|--------|--------|
|-----------------------------------------|--3--6--|--6--3--|
|-----------------------------------------|--3--6--|--6--3--|
|--0-0--2-3\5---0-0--2-3\5---0-0----------|--1--4--|--4--1--|
                                           *first ending
                                           **second ending
Riff A x2
Riff B
Riff C x2

Riff D
|---------------------------|
|---------------------------|
|---------------------------|
|---------------------------|
|---------------------------|
|--6--5~-3--0---6--5~-3--0--|

Riff E x2
|-------------------------------|
|-------------------------------|
|-------------------------------|
|-------------------------------|
|-------------------------------|
|--5--7--7h8p7--5-7p5--5--1--4--|

Riff A x2
Riff B
Riff C x4
Riff D x4

Fill 1 (listen for how many times)
|-------------------------------|
|-------------------------------|
|-------------------------------|
|-------------------------------|
|-------------------------------|
|-222222222222222222222222222"--|

Riff F x2
|---------------------------------------|
|---------------------------------------|
|---------------------------------------|
|---------------------------------------|
|----4-3-0---------------4-3----2-------|
|--2--------4p3-3h4---2-------4---4-2---|

Riff G
|------------------------------------------------------------|
|------------------------------------------------------------|
|------------------------------------------------------------|
|------------------------------------------------------------|
|-----7p6/7\9---7p6\8---7/6\7--------7p6/7\9---7p6\8---7/6\7-|
|--0---------------------------0-----------------------------|

Riff F x2
Riff G

Solo
|----------------------------------------------------------------------|
|--17--17--17--17---6-5-3-5-6-5-10-9--13-12-10-9--10-9-6-5--6-6-5--3\5-|
|----------------------------------------------------------------------|
|----------------------------------------------------------------------|
|----------------------------------------------------------------------|
|----------------------------------------------------------------------|

|-----------------------------------------------------------------|
|------------------------------17-18-17-15-14-15-17-15-14-11-10---|
|-----------------------------------------------------------------|
|--------------------7-6------------------------------------------|
|--8--8--7-5--7-8-7------8-7--------------------------------------|
|-----------------------------------------------------------------|

Riff A x2
Riff B
Riff C x2
Riff D x4

End on Riff A
            
Hard to play? Try these video lessons and learn fast. | Correct




comments powered by Disqus
↑ Back to top | Tablatures and chords are parodies/interpretations of the original songs. You may use it for private study, scholarship, research or language learning purposes only