» » »

Haunted, Urban Predator Tabs (ver.1)

Artists:  A B C D E F G H I J K L M N O P Q R S T U V W X Y Z # 

Urban Predator Tabs (ver.1)

Haunted Tabs
Rating:
0/5 (0 votes)
Urban Predator lessons Tabs too difficult? Try these video lessons and learn fast
                Band- haunted
Song- Urban Predator

*note*
Tabbing this song was about as much fun as finding out you just sat in a
pile of horsecr*p, but playing it is pretty easy. Enjoy.

The verse riff sounds more diificult than it really is. I reccomend playing
the tab with the song and add your own palm muted 0's or as necessary.

Riff A (verse riff)
|---------------------------------|----------------------------------|
|---------------------------------|----------------------------------|
|---------------------------------|----------------------------------|
|---------------------------------|----------------------------------|gtr.1
|------------1--1-----------------|----------------------------------|
|-5-000-3-00--00--000-3-000-3p2p0-|-0-3-6-0-6-3-5-0-6-3-5-0-6-3p2p0--|
    ...   ..  ..  ...   ...               .       .       .

|---------------------------------|----------------------------------|
|---------------------------------|----------------------------------|
|---------------------------------|----------------------------------|gtr.2
|---------------------------------|----------------------------------|
|------------1--------------------|----------------------------------|
|-5-000-3-00---00000-3-000000-00--|-0"---0"6------0"6------0"6---00--|
    ...   ..   .....   ...... ..    .    .        .        .     ..

Riff B
|----------------------------------------------------|
|----------------------------------------------------|
|----------------------------------------------------|
|----------6-5----------------------6-5---7--3-8-----|
|-5--8--7--4-3--5--8--6----5--8--7--4-3---5--1-6-----|
|-3--6--5-------3--6--4*---3--6--5-------------------|

Verse x2
Riff B

Chorus x4
|---------------------------------------------|
|---------------------------------------------|
|---------------------------------------------|
|---------------------------------------------|
|--5--7h8-5h7--6h7/9-5h6/7------7h8p7---------|
|--------------------------------------1-1-0--|
                                       . .
Fill (listen to cd for exact feel)
|---------------------------|
|---------------------------|
|---------------------------|
|-------------------------6-|
|---------------------------|
|-1-1111-2-11-4-4-1-7-11--4-|
  . ....   ..     .   ..

Verse x2
Riff B
Chorus x4

Bridge x2
|--------------------------------------------|
|--------------------------------------------|
|--------------------------------------------|
|--------------------------------------------|
|--------------------------------------------|
|-1-1111-222-1111-444-1111-777-1111-1h2p1h2p1|

b.2 x2
|--------------------------------------------|
|--------------------------------------------|
|--------------------------------------------|
|--------------------------------------------|
|--------------------------------------------|
|-1-1111-222-1111-444-1111-777-1111-1h2p1h2p1|
  . .... ... .... ... .... ... .... . . . . .

Solo:
|------------------10h11-------------14------------------------------
|--12*--11*--11h12-------15p12-16p12----12-16-12---------10*--9*--5--
|-------------------------------------------------13*----------------
|--------------------------------------------------------------------
|--------------------------------------------------------------------
|--------------------------------------------------------------------

 -------------------------------6"-5"-6"-8--------------------------
 --4h5/7-7-10-9-10--9-7-9----4--------------------------------ph----
 --------------------------------------------4h5p4-2h4---2-----5*---
 ------------------------------------------------------4---(4)------
 -------------------------------------------------------------------
 -------------------------------------------------------------------

 ---------------------------------------------------------|
 --------2--------11h12-9h10-7h8-5h6-3h4-1h2--0-(0-1)-4*--|
 --3-2-3---3-2-3------------------------------------------|
 ---------------------------------------------------------|
 ---------------------------------------------------------|
 ---------------------------------------------------------|

Chorus x2

Ending:
|-----------------------------
|-----------------------------
|-----------------------------
|----4-----4------------------
|-6--4--6--4--5h66-9p66-9p66--
|-6-----6---------------------

This is played over the last chorus:
|-----------------------------------------------------------------------|
|-4*---2*-------------4*---2*-------------4*---2*------------4*---2*----|
|----------1---0*---------------1---0*--------------1---0*------------1-|
|-----------------------------------------------------------------------|
|-----------------------------------------------------------------------|
|-----------------------------------------------------------------------|

Then the final notes:
|--------------------|
|--------------------|
|--------------------|
|--------------------|
|--5-5-5-5-8--8-8-8--|
|--3-3-3-3-6--6-6-6--|
            

comments powered by Disqus
↑ Back to top | Haunted Tabs for Urban Predator. Lyrics for acoustic guitar and electric guitar. Tablatures and chords are parodies/interpretations of the original songs. You may use it for private study, scholarship, research or language learning purposes only