» » »

Undead Tabs (ver.1)

Artists:  A B C D E F G H I J K L M N O P Q R S T U V W X Y Z # 

Undead Tabs (ver.1)

Haunted
Rating:
0/5 (0 votes)

Hard to play? Try these video lessons and learn fast.
                THE HAUNTED - UNDEAD
                         From the Album THE HAUNTED
                         Copyright 1998 Earache Records
                              
                           Version 1.0 - March 1999
                                 
                
Check Out 's Home Page, With More Transcriptions And Tabs On It:
               
               

.  - palm mute                /  - slide up to         
\  - slide down to            ~  - vibrato             
h  - hammer on                b  - bend 
p  - pull off                 Suffixes for bend    
t  - tap with fin             f - full bend    h - half bend
*  - see comment              r - release      t - tap bend
X  - percussion mute          ~ - vibrato bend
"  - tremelo note             () - ghost note, sustained note

Tuning: Eb (in otherwords, all strings down 0.5 steps)

  Intro 	
|---------------------------------------|
|---------------------------------------|
|------------------------10-------------|	Gtr 1
|-7h8----5h7----7h8----78--8-7h8----5h7-|
|----0000---0000---0000---------0000----|
|---------------------------------------|
     ....   ....   ....         ....

  Riff A
|---------------------------------------------------|
|---------------------------------------------------|
|---------------------------------------------------|
|------------------------10----------------9--------|	Gtrs 1+2
|-7h8----5h7----7h8----78--8-7h8----5h7----7--------|
|----0000---0000---0000---------0000---0000-00-000--|
     ....   ....   ....         ....   .... .. ...
 
Repeat A

Riff B (verse)
|--------------------------------------|
|--------------------------------------|
|--------------------------------------|
|--------------------------------------|	Gtrs 1+2
|-5h7--7h8--5h7------5h7-7h8---232-523-|
|----00---00---000000---00--00-010-301-|
     ..   ..   ......   ..  .. ......  

Repeat B


Riff C (chorus)
|-----------------------------------------------------------|
|-----------------------------------------------------------|
|-----------------------------------------------------------|
|-----------------------------------------------------------| Gtrs 1+2
|-----------------------3333---------------------------3----|
|-5-22221111222255552222----2222-5-22221111222255552222-520-|
									 ....

Repeat C
Repeat A X2
Repeat B X2
Repeat C X2

Fill 1
|-----------|
|-----------|
|-----------|
|-----------| Gtrs 1+2
|-----------|
|-6530-8650-|
  .... ....							 

Riff E1
|--------------------------------------|
|--------------------------------------|
|--------------------------------------|
|--------------------------------------|	Gtrs 1+2
|---------------------------random fill-----------|
|-30003000300034-30003000--------------|
  ......................

Repeat E1

Riff E2 
|-------------------------------------------------|
|-------------------------------------------------|
|-------------------------------------------------|
|-------------------------------------------------|	Gtrs 1+2
|-2--2--2--23-2--2------------2--2--2--23-1---0---|
|-30030030034-3003002060809p8-30030030034-2---1---|
   .. .. ..    .. ..........   .. .. ..

Repeat E2 (Gtr 2 only under solo)

Riff F1
|-------------------------------------------|
|-------------------------------------------|
|-------------------------------------------|	Gtr 2
|-4----3-3-34----3-3-34----3-3-34----3-3-3--|
|--0000-0-0--0000-0-0--0000-0-0--0000-0-0-0-|
|-------------------------------------------|
   .... . .  .... . .  .... . .  .... . .

Riff F2
|-------------------------------------------|
|-------------------------------------------|
|-------------------------------------------|	Gtr 2
|-7----8-8-87----8-8-87----8-8-87----8-8-8--|
|--0000-0-0--0000-0-0--0000-0-0--0000-0-0-0-|
|-------------------------------------------|
   .... . .  .... . .  .... . .  .... . .

Repeat F1+F2



Bridge to verse
|--------------------------|
|--------------------------|
|--------------------------|
|--------------------------| Gtrs 1+2
|-7---6-387---Pick slide---|
|-5---4-165---\\\\\\\\\\---|

|------------------|
|------------------|
|------------------|
|------------------| Gtrs 1+2
|-7---6-387---~----|
|-5---4-165-0-6----|
	      .

Repeat B X2
Repeat C X2

Outro

|--------------------------|
|--------------------------|
|--------------------------|
|--------------------------| Gtrs 1+2
|-232-523-232-523-232-5232-|
|-010-301-010-301-010-3010-|
  ... ... ... ... ... ....
            
Hard to play? Try these video lessons and learn fast. | Correct




comments powered by Disqus
↑ Back to top | Tablatures and chords are parodies/interpretations of the original songs. You may use it for private study, scholarship, research or language learning purposes only