» » »

Trepass Tabs (ver.2)

Artists:  A B C D E F G H I J K L M N O P Q R S T U V W X Y Z # 

Trepass Tabs (ver.2)

Haunted
Rating:
0/5 (0 votes)

Hard to play? Try these video lessons and learn fast.
                JUST WANTED TO SPREAD THE WORD ABOUT THE HAUNTED
CRAZY GUITARISTS!

                       	 THE HAUNTED - TRESPASS
                 From the Album THE HAUNTED MADE ME DO IT
                     Copyright 2000 EARACHE RECORDS
                       Version 2.0 - November 2001

Version 2.0 by: Mikko Leimu

For Questions, Comments, Newest Version, or Corrections contact


..  - palm mute          /  - slide up to
 \  - slide down to      ~  - vibrato
 h  - hammer on          b  - bend
 p  - pull off            Suffixes for bend
                          ph - pinch harmonic
                           f - full bend    h - half bend
*  - see comment           r - release      t - tap bend
X  - percussion mute       ~ - vibrato bend
@  - slight palm mute     () - ghost note, sustained note

Tune Gtr to Eb (every string 0.5 steps down)

The Haunted - Trespass

Riff A
|----------------------------------------|------------------------------|
|----------------------------------------|------------------------------|
|----------------------------------------|------------------------------|Gtrs
|----------------------------------------|-----5---4---5---7-----(7/99)-|I&II
|-----7---10---9h10p9-12---10---9--------|------------------------------|
|-0-0---0----0-----------0----0---8-7-10-|-3-3---3---3---3---5/8--5/77--|
  . .   .    .           .    .            . .   .   .   .

Repeat Riff A  3 times

Riff B
|--------------------------------|---------------------------------|
|--------------------------------|---------------------------------|
|--------------------------------|---------------------------------|Gtrs
|--------------------------------|-----------------6h7p6-----------|I&II
|-333-333-333-333-------------5--|-----5---7---8---------7-8---5h8-|
|-----------------333-333-1-4---4|-0-0---0---0---0-----------0-----|
  ... ... ... ... ... ...          . .   .   .   .           .

|------------------------------|------------------------------|
|------------------------------|------------------------------|
|------------------------------|------------------------------|Gtrs
|-------------------------4----|-----------------------4/55\4-|I&II
|-333-333-333-333---------2----|------------------------------|
|-----------------333-333-2----|-0-0000-0000-00-00-000-2/33\2-|
  ... ... ... ... ... ...        . .... .... .. .. ...

|--------------------------------|---------------------------------|
|--------------------------------|---------------------------------|
|--------------------------------|---------------------------------|Gtrs
|--------------------------------|-----0---2---3---5---3---0-3-2-0-|I&II
|-333-333-333-333-------------5--|-----0---2---3---5---3---0-3-2-0-|
|-----------------333-333-1-4---4|-0-0---0---0---0---0---0---------|
  ... ... ... ... ... ...          . .   .   .   .   .   .

|------------------------------|------------------------------|
|------------------------------|------------------------------|
|------------------------------|------------------------------|Gtrs
|-------------------------4----|-----------------------4/55\4-|I&II
|-333-333-333-333---------2----|------------------------------|
|-----------------333-333-2----|-0-0000-0000-00-00-000-2/33\2-|
  ... ... ... ... ... ...        . .... .... .. .. ...

Repeat Riff A 2 times

Riff C
|------------------------------------|---------------------------------|
|------------------------------------|---------------------------------|
|------------------------------------|------------------------9-9-9/10-|Gtr
|------------------------------------|-----3---3-----------------------| I
|-----7---10-----7---10-----2h3p2----|--------------------5---7-7-7/9--|
|-0-0---0----0-0---0----0-0------5-3-|-1-1---1---1-1-1-/7---7----------|
| . .   .    . .   .    . .      . . | . .   .   . . .                 |
|				     |			               |
|------------------------------------|---------------------------------|
|------------------------------------|---------------------------------|
|------------------------------------|---------------------------------|Gtr
|-2-----------------------------(2)--|-3-------7-------9------10-------|II
|-2-----------------------------(2)--|---------------------------------|
|-0-----------------------------(0)--|-1-------5-------7------8--------|

|------------------------------------|--------------------------|
|------------------------------------|--------------------------|
|------------------------------------|--------------------------|Gtr
|------------------------------------|-----3---3----------------| I
|-----7---10-----7---10-----2h3p2----|-----------------2h5p2----|
|-0-0---0----0-0---0----0-0------5-3-|-1-1---1---1-1-1-------3--|
| . .   .    . .   .    . .      . . | . .   .   . . .          |
|				     |			        |
|------------------------------------|--------------------------|
|------------------------------------|--------------------------|
|------------------------------------|--------------------------|Gtr
|-2-----------------------------(2)--|-3-------7----------------|II
|-2-----------------------------(2)--|-----------------2h5p2----|
|-0-----------------------------(0)--|-1-------5-------------3--|

Riff B
Riff A 2 times
Riff C 4 2 times

Riff D
|------------------------------------------|---------------------0--------|
|------------------------------------------|-----------------------0------|
|------------------------------------------|-------------------------0----|Gtr
|-----9-7-9-/12----------------------------|-----9-7-9-/12---5---------3--| I
|-----7-5-7-/10------------3-------2-------|-2---7-5-7-/10---3---------1--|
|-0-------------0-3-/5-5-----5-5-5---3-3-3-|-0-------------0--------------|
|               .          . . . . . . . . |               .		  |
|					   |			  	  |
|------------------------------------------|------------------------------|
|------------------------------------------|------------------------------|
|------------------------------------------|------------------------------|Gtr
|------------------------------------------|-----------------5---------3--| II
|--------------------------3-------2-------|-2---2-2-2-2-2---3---------1--|
|----------------------------5-5-5---3-3-3-|-0---0-0-0-0-0----------------|
                           . . . . . . . .       . . . . .

|------------------------------------------|---------------------0--------|
|------------------------------------------|-----------------------0------|
|------------------------------------------|-------------------------0----|Gtr
|-----9-7-9-/12----------------------------|-----9-7-9-/12----------------| I
|-2---7-5-7-/10------------3-------2-------|-2---7-5-7-/10---3---------1--|
|-0-------------0-3-/5-5-----5-5-5---3-3-3-|-0-------------0--------------|
|               .          . . . . . . . . |               .		  |
|					   |			  	  |
|------------------------------------------|------------------------------|
|------------------------------------------|------------------------------|
|------------------------------------------|------------------------------|Gtr
|-----9-7-9-/12---5-/7-7-------------------|-----9-7-9-/12----------------| II
|-2---7-5-7-/10------------3-------2-------|-2---7-5-7-/10---3---------1--|
|-0-------------0-3-/5-5-----5-5-5---3-3-3-|-0----------------------------|
                .            . . . . . . .

|------------------------------------------|---------------------0-------0-----|
|------------------------------------------|-----------------------0-----------|
|-----------------5--5-5-------------------|-------------------------0---------|Gtr
|-----9-7-9-/12----------------------------|-----9-7-9-/12------------------x\-| I
|-2---7-5-7-/10---3--3-3---3-------2-------|-2---7-5-7-/10---3---------1----x\-|
|-0-------------0------------5-5-5---3-3-3-|-0-------------0----------------x\-|
|               .          . . . . . . . . |               .		       |
|					   |			  	       |
|------------------------------------------|-----------------------------------|
|------------------------------------------|-----------------------------------|
|------------------------------------------|-----------------------------------|Gtr
|-----9-7-9-/12---5-/7-7-------------------|-----9-7-9-/12---------------------| II
|-2---7-5-7-/10------------3-------2-------|-2---7-5-7-/10---3---------1-------|
|-0-------------0-3-/5-5-----5-5-5---3-3-3-|-0---------------------------------|
                .            . . . . . . .

Solo w/Riff E

Riff E
|---------------------------|-----------------------------|
|---------------------------|-----------------------------|
|----------------0----------|----------------0------------|Gtr
|-------------2----0-5-5-5--|-------------2----0-5--------|II
|-2--2------5-4------3-3-2--|-2--2------5-4------3------2-|
|-0--0--0-7-----------------|-0--0--0-7-------------0-3---|
        . 			    .	            . .

|---------------------------|----------------------------|
|---------------------------|----------------------------|
|----------------0----------|----------------0-----------|Gtr
|--------------2---0-5-5-5--|-------------2----0-5-------|II
|-----2------5-4-----3-3-2--|-2--2------5-4------3-------|
|-3-0-0--0-7----------------|-0--0--0-7------------------|
  * .    .			    .

  * slight bend up

|-----------------------|
|-----------------------|
|-----------------------|
|-7----5----5--4-5-4----|
|-----------3--2-3-2----|
|-5----3----3--2-3-2----|

Riff B
Riff A 2 times
Riff C 2 times, but the final ending goes like this

|---------------------------------|
|---------------------------------|
|---------------------------------|Gtr
|-----3---3-------------------9-\-| I
|-----------------2h5p2-1-----7-\-|
|-1-1---1---1-1-1---------3-5-----|
| . .   .   . .                   |
|		                  |
|---------------------------------|
|---------------------------------|
|---------------------------------|Gtr
|-3-------7-------------------9-\-|II
|-----------------2h5p2-1-----7-\-|
|-1-------5---------------3-5-----|
            
Hard to play? Try these video lessons and learn fast. | Correct




comments powered by Disqus
↑ Back to top | Tablatures and chords are parodies/interpretations of the original songs. You may use it for private study, scholarship, research or language learning purposes only