» » »

The World Burns Tabs (ver.1)

Artists:  A B C D E F G H I J K L M N O P Q R S T U V W X Y Z # 

The World Burns Tabs (ver.1)

Haunted
Rating:
0/5 (0 votes)

Hard to play? Try these video lessons and learn fast.
                T H E   H A U N T E D   -   T H E   W O R L D   B U R N S
               From the Album THE HAUNTED MADE ME DO IT
                    Copyright 2000 EARACHE RECORDS 
                      
                        Version 1.0 - July 2002                        


Version 1.0 by : Juan P & SyM.unDEAD
Solos by : SyM.unDEAD


For Questions, Comments, Newest Version, or Corrections contact




.  - palm mute                  /  - slide up to
\  - slide down to              ~  - vibrato
"  - tremelo picking           ( ) - ghost note
b  - bend                       h  - hammer-on
fb - full bend (1 step)         p  - pull-off
hb - half bend (1/2 step)       r  - release a bend
t  - tapping                    ah - artificial harmonic

Tuning : half step down - Eb Ab Db Gb Bb Eb

-THE WORLD BURNS-

          -------------------------------
          * No timing, just listen the cd 
          -------------------------------

Intro

|-------------------------------------------------------------|
|-------------------------------------------------------------|
|-------------------------------------------------------------|BOTH
|-2------------------------9-----2----------------------------|GTRS
|-2-----8p7---5h7---10p7-----8---2-----8p7---5h7---10p7-------|
|-0-0-0-----0-----0------0-----0-0-0-0-----0-----0------0-7-6-|
    . .     .     .      .     .   . .     .     .      .     

|----------------------------------------------------------|
|----------------------------------------------------------|
|----------------------------------------------------3-3-3-|BOTH
|-2------------------------9-----2---------------3-3-3-3-3-|GTRS
|-2-----8p7---5h7---10p7-----8---2-----8p7---5h7\3-3-1-1-1-|
|-0-0-0-----0-----0------0-----0-0-0-0-----0-----1-1-------|
    . .     .     .      .     .   . .     .      

repeat once
                                                                                  
|------------------------------------------------------------|
|------------------------------------------------------------|
|------------------------------------------------------------|
|-------------------------------------------------3----------|BOTH
|-------------------------------------------------1----------|GTRS
|-000-000-000-000-000-000-1-4-3-1-000-000-000-000----0-1-3-4-|
  ... ... ... ... ... ... . . . . ... ... ... ...    . . . .
 
|-------------------------------------------------------------|
|-------------------------------------------------------------|
|-------------------------------------------------------------|BOTH
|-------------------------------------------------5-4-3-------|GTRS
|-------------------------------------------------3-2-1-5-4-3-|
|-000-000-000-000-000-000-1-4-3-1-000-000-000-000-------3-2-1-|
  ... ... ... ... ... ... . . . . ... ... ... ...


Riff A x2                                    ______________ __________
                                            |1.            |2.        |            
|-------------------------------------------|--------------|----------|
|-------------------------------------------|--------------|----------|
|-------4----4/5----------------------------|--------------|----------|
|-------2----2/3-------3----2---------2-1/2-|--------------|-3---5/6--|
|-0-000-2-00-2/3--------------3-------2-1/2-|-------5---2~-|-3---5/6--|
|----------------1-111---11-----0-000-------|-4-444---4----|-1---3/4--|
  . ...   ..     . ...   ..     . ...         . ...   . 


Riff B x4
                                           ________________________ ________________________
                                          |1.3.                    |2.                      |
|-----------------------------------------|------------------------|------------------------|
|-----------------------------------------|------------------------|------------------------|
|-----------------------------------------|------------------------|------------------------|
|-----------------------------------------|------------------------|------------------------|
|-----------------------------------------|-5\3---2/3---2/5---2----|-5\3---2/3---2/5---2-1~-|
|-000-000-000-000-000-000-1-4-3-1-000-000-|-3\1-0-0/1-0-0/3-0---1~-|-3\1-0-0/1-0-0/3-0------|
  ... ... ... ... ... ... . . . . ... ...       .     .     .            .     .     .

 _____________________
|4.                   |
|---------------------|
|---------------------|      
|---------------------|BOTH
|---------5-4-3-------|GTRs
|---------3-2-1-5-4-3-|
|-000-000-------3-2-1-|
  ... ...


Riff A x2


Riff C x2

|------------------------------------------------------------------------------------------|
|------------------------1313---1313-------------------------------------------------------|
|-------9\7/9------------1212---1212------------------9\7/9--------1010---1010---12/13-13~-|BOTH
|-2-----9\7/9----4--5----1010---1010---9/10\9---2-----9\7/9---4-5--1010---1010-------------|GTRs
|-2-----7\5/7----4--5------------------9/10\9---2-----7\5/7---4-5---8-8----8-8---10/11-11~-|
|-0-0-0-------0--2--3--0------0------0-7/-8\7-0-0-0-0-------0-2-3-0-----0------0-----------|
    . .       .        .      .      .        .   . .       .     .     .      .

|-------------------------------------------------------------------------------------|
|-------------------------------------------------------------------------------------|
|-------9\7/9----------55---55---4/5\4---------9\7/9---------1010---1010---12/13-13~--|BOTH
|-2-----9\7/9---4-5----55---55---4/5\4---2-----9\7/9----4-5--1010---1010--------------|GTRS
|-2-----7\5/7---4-5----33---33---2/3\2---2-----7\5/7----4-5---8-8----8-8---10/11-11~--|
|-0-0-0-------0-2-3--0----0 ---0-------0-0-0-0--------0-2-3-0-----0------0------------|
    . .       .      .    .    .       .   . .        .     .     .      .              


Riff B x4

Lead One of Riff B: (starts one beat after the Riff B - listen to the song for exact timing)

|----------------------------------------------------------------------------------------------|
|-2020--17-16-17-------------------------------------------------------------------------------|
|----------------17-16-17-15~-15~---14-15-14---------------------------16h17p16h19-------------|
|--------------------------------------------16-14-13-14~--16h17p16h17-------------16h17p16h17-|
|----------------------------------------------------------------------------------------------|
|----------------------------------------------------------------------------------------------|

|----------------------------|
|----------------------------|
|----------------------9\*---|
|-14--12--10~---10--9--9\*---|
|----------------------------|
|----------------------------|
                         *=dive with whammy bar

Riff A x2

Riff C x2

End on Riff C

|------------------------------------------------------------------------------------|
|------------------------------------------------------------------------------------|
|------------------------------------------------------------------------------------|BOTH
|-(2)------------------------------------------------------------------------------$-|GTRS
|-(2)------------------------------------------------------------------------------$-|
|-(0)------------------------------------------------------------------------------$-|
|  * Hold until $                                                                    |
|                                                                                    |
|                                                                                    |
|------------------------------------------------------------------------------------|
|--------------------9---------------------------------------------9-----------------|BASS
|-------8-7-5-7-10-7---8-------8-7-5-7-10-7-----------8-7-5-7-10-7---8-------8-7-5-7-|
|-0-0-0------------------0-0-0--------------7-6-0-0-0------------------0-0-0---------|



Riff D  (let ring)
     
|-----0----------------------5--------7-|-----0---------------5--------7-|
|-1----------------------3--------6-----|-1---------------3--------6---*-|
|---2----------------------4--------7---|---2---------------4--------7---|GTR1
|---------------------------------------|--------------------------------|(clean)
|---------------------------------------|--------------------------------|
|---------------------------------------|--------------------------------|
                                                                       *here starts
                                                                        Lead two

Riff D.2 (on Lead two)

|-----0----------------------5--------7---------|-----0---------------5--------7-|
|-1----------------------3--------6-------------|-1---------------3--------6-----|
|---2----------------------4--------7-----------|---2---------------4--------7---|GTR1
|-----------------------------------------------|--------------------------------|(clean)
|-----------------------------------------------|--------------------------------|
|-----------------------------------------------|--------------------------------|
|
|                                              x2
|-----0---0-------3---3------5-------7---7--7---|
|---1---1---1---1---1----3--------6----6------6-|
|-2-----------2------------4--------7-----7-----|GTR2
|-----------------------------------------------|(clean) - not sure at all of this part ! DAMMIT!
|-----------------------------------------------|
|-----------------------------------------------|


Lead two on Riff D.2
(listen to the recorded solo to get the exact feeling)

|---------------------------------------------------------------------------------------------|
|-(12~)---13~--12~--10-10~--12-13-12~--12-10-9-10-9h10p9----9---------------------------------|
|--------------------------------------------------------10---10-9-10~--10-9h10p9p7-9-10~--9~-|
|---------------------------------------------------------------------------------------------|
|---------------------------------------------------------------------------------------------|
|---------------------------------------------------------------------------------------------|

|----------------------------------------------------------------------------------------------|
|----------------------------------------------------------------------------------------------|
|--------7~------9~---------7~-------9~---9-10-7-10----10---10---10---10---10---10-------------|
|-7h9h10----10-9----7h9h10------10-9----------------10----9----7----6----7----9-----7~----(7~)-| GTR3
|----------------------------------------------------------------------------------------------|
|----------------------------------------------------------------------------------------------|



Riff E x2

|-----------------------------------------------------------------|
|-----------------------------------------------------------------|
|-----------------------------------------------------------------|
|-----------------------------------------------------------------|GTR1
|-7-----7-----7---7-----7-----7---7-----7-----7---0-----0-----0---|
|-5-5-5-5-5-5-5-5-5-5-5-5-5-5-5-5-4-4-4-4-4-4-4-4-1-1-1-1-1-1-1-1-|
    . .   . .   .   . .   . .   .   . .   . .   .   . .   . .   .

|----------------------------------------------------------------|
|----------------------------------------------------------------|
|----------------------------------------------------------------|
|----------------------------------------------------------------|GTR2
|-7-----7-----7---7-----7-----7---7-----7-----7---0-----0--------|
|-5-5-5-5-5-5-5-5-8-8-8-8-8-8-8-8-4-4-4-4-4-4-4-4-1-1-1-10013101-|
    . .   . .   .   . .   . .   .   . .   . .   .   . . ........
                                                       

Fill 1
|------------------|
|------------------|
|------------------|BOTH
|------------------|GTRS
|--777-777-777-777-|
|--555-555-555-555-|


Riff F x2
|--------------------------------------------------------------|
|--------------------------------------------------------------|
|--------------------------------------------------------------|
|-2------------------------9-----2-----------------------------|GTR 2
|-2-----8p7---5h7---10p7-----8---2-----8p7---5h7---10p7--------|
|-0-0-0-----0-----0------0-----0-0-0-0-----0-----0------0-7-6--|
|   . .     .     .      .     .   . .     .     .      .      |
|--------------------------------------------------------------|
|--------------------------------------------------------------|
|--------------------------------------------------------------|
|-2------------------------9-----------------------------------|GTR 1
|-2-----8p7---5h7---10p7-----8~----------------------------(8)-|
|-0-0-0-----0-----0------0-------------------------------------|
    . .     .     .      .

|---------------------------------------|
|---------------------------------------|
|---------------------------------------|
|-------------------------------5----3--|GTR 2
|-------------------------------3----1--|
|-6~------------------------(6)-3----1--|
|                                       |                                
|---------------------------------------|
|---------------------------------------|
|---------------------------------------|
|-2------------------------9----5----3--|GTR 1
|-2-----8p7---5h7---10p7-----8--3----1--|
|-0-0-0-----0-----0------0------3----1--|

 

Riff F.2
|-------------------------------------------------------------------------------|
|-------------------------------------------------------------------------------|
|-------------------------------------------------------------------------------|
|---------------------------------------3---------------------------------------|GTR2
|---------------------------------------1---------------------------------------|
|-000-0-000-0-000-0-1-4-3-1-000-0-000-0---0-1-3-4-----000---000---000-0-1-4-3-1-|
| ... . ... . ... . . . . . ... . ... .   . . . .     ...   ...   ... . . . . . |
|                                                                               |
|-------------------------------------------------------------------------------|
|-------------------------------------------------------------------------------|
|-------------------------------------------------------------------------------|
|---------------------------------------3---------------------------------------|GTR1
|---------------------------------------1---------------------------------------|
|-000-0-000-0-000-0-1-4-3-1-000-0-000-0---0-1-3-4-000---000---000-----0-1-4-3-1-|
  ... . ... . ... . . . . . ... . ... .   . . . . ...   ...   ...     . . . . .


Riff C x2

                                                          
Riff C.2 x2                                               
|---------------------------------------------------------------------------|
|---------------------------------------------------------------------------|
|---------------------------------------------------------------------------|
|-2-----4\5/4----4-5----10-9-7-5-4/5\4-2-----4\5/4---4-5----3-5-7-9-9/10\9--|GTR1
|-2-----4\5/4----4-5-------------------2-----4\5/4---4-5--------------------|
|-0-0-0-2\3/2-0--2-3--0--8-7-5-3-2/3\2-0-0-0-2\3/2-0-2-3--0-1-3-5-7-7/ 8\7--|
|   . .       .       .                  . .       .      .                 |
|                                                                           |
|---------------------------------------------------------------------------|
|---------------------------------------------------------------------------|
|-------9\7/9-----------5-----------(5)------9\7/9---------10----------(10)-|
|-2-----9\7/9----4--5---5-----------(5)2-----9\7/9---4-5---10----------(10)-|GTR2
|-2-----7\5/7----4--5---3-----------(3)2-----7\5/7---4-5----8-----------(8)-|
|-0-0-0-------0--2--3-0----------------0-0-0-------0-2-3--0-----------------|
    . .       .       .                  . .       .      .


2nd time different ending:

|-----------------------|
|-----------------------|
|-----------------------|BOTH
|-----3--2--3--5--6--2--|GTRs
|-----3--2--3--5--6--2--|
|-0-0-1--0--1--3--4--0--|
| . .                   |
|                       |
|-----------------------|
|-----------------------|
|-----14-12-14-16-17-16-|
|-----------------------|GTR3
|-----12-10-12-14-15-14-|
|-----------------------|
            
Hard to play? Try these video lessons and learn fast. | Correct




comments powered by Disqus
↑ Back to top | Tablatures and chords are parodies/interpretations of the original songs. You may use it for private study, scholarship, research or language learning purposes only