» » »

Haunted, Shadow World Tabs (ver.1)

Artists:  A B C D E F G H I J K L M N O P Q R S T U V W X Y Z # 

Shadow World Tabs (ver.1)

Haunted Tabs
Rating:
0/5 (0 votes)
Shadow World lessons Tabs too difficult? Try these video lessons and learn fast
                Band- Haunted
Song- Shadow World

Tuning; 1 Whole Step Down,(Low to High) D,G,C,F,A,D

Riff #1a
|-------------------------------------------------------|
|-------------------------------------------------------|
|-------------------------------------------------------|
|------------------------------------------9------------|
|---10---6--7/9--10---6--7/9--10---9--7\6-------10--9---|
|--0--0-0--0----0--0-0--0----8--8-8--8----7--7-7--7-----|
   .  . .  .    .  . .  .    .  . .  .    .  . .  .

Riff#1b
|-------------------------------------------------------|
|-------------------------------------------------------|
|-------------------------------------------------------|
|-------------------------------------------h-p---------|
|---10---6--7/9--10---6--7/9--10---9--7\6--6-9-6--6-----|
|--0--0-0--0----0--0-0--0----8--8-8--8----7------7-7----|
   .  . .  .    .  . .  .    .  . .  .    .
Riff#2
|-------------------------------------------------------|
|-------------------------------------------------------|
|--------------------------3-3--------------------------|
|--9\----------------------2-2--------------------------|
|--7\----------4-5---------1-1---------5-7--7-8---------|
|----0-0-0-0-0-2-3-0-0-0-0-----0-0-0-0-3-5--5-6---------|
     . . . . .     . . . .     . . . .

|--------------------------------------------------|
|--------------------------------------------------|
|--------------------------------------------------|
|--9\----------------------------------------------|
|--7\----------4-5-----------------5-----------h---|
|----0-0-0-0-0-2-3-0-0-0-0-0--3-5-6-6-5-3-0-x-3-5--|
     . . . . .     . . . .

Riff#3
|-------------------------------------------|
|-------------------------------------------|
|-------------------------------------------|
|---h-------h----5--h-------h----5----------|
|--2-4-4-4-2-4-4-3-2-4-4-4-2-4-4-3-3-4-4-4--|
|--0-2-2-2-0-2-2---0-2-2-2-0-2-2---1-2-2-2--|
       . .     .       . .     .       . .

|-------------------------------------|
|-------------------------------------|
|-------------------------------------|
|---h-----h--5--h---------------------|
|--2-4-4-2-4-3-2-4-4-4-----5----------|
|--0-2-2-0-2---0-2-2-2--5-6-5-0-3-5-0-|
       .           . .

Then Riff#2 (Verse)With a variation on the last two chords
Play this instead of last three notes
|---------|
|--5--4---|
|--3--2---|

Then Riff#1(a/b)
Then Pre-Verse Riff
|----------------------------------------------|
|----------------------------------------------|
|----------------------------------------------|
|---p-----3-4----p--------p-----3-4----p-------|
|--5----3-1-2---3----5/6-5----3-1-2---3---h-h--|
|--30-0-1-----0-10-0-3/4-30-0-1-----0-10-3-5-6-|

Then Verse Riff

Bridge Riff
|------------------------------------|
|--------------------N.H.------------|
|----9----------------5///(With Bar)-|
|----x----4/5---5/7------------------|
|--2-7----2/3---3/5-2----------------|
|--0----0-----0-----0----------------|
        .     .
Guitar 1
|------------------------------------------------------|
|------------------------------------------------------|
|----9----------------9------------9-------------------|
|----x----4/5---5/7---x------------x---4/5---5/7-5----4|
|--2-7----2/3---3/5-2-7---5-4-3--2-7---2/3---3/5-3--5-2|
|--0----0-----0-----0---0-3-2-1--0---0-----0--------3--|
        .     .         .            .     .

Guitar 2
|------------------------------------------------------|
|----5----------------5------------5-------------------|
|----7fb--------------7fb----------7fb-----------------|
|---------4/5---5/7------121110--------4/5---5/7-5----4|
|--2------2/3---3/3-2----10-9-8--2-----2/3---3/5-3--5-2|
|--0----0-----0-----0---0--------0---0-----0--------3--|

Interlude Before Solo
Just Palm Mute Open E string
Straight-Forward Rhythm

Solo(Over Bridge Riff)
|------------------------------7-8--7~~-|
|-------8--7~~----10--8~~--10-----------|
|--9~~---------9------------------------|
|---------------------------------------|
|---------------------------------------|
|---------------------------------------|

|-----------------------------------------|
|--------------p-----p-----p----p---------|
|---------9--1211-0-119-0-97-0-75-0-4~~~~-|
|-----------------------------------------|
|--7-9-10---------------------------------|
|-----------------------------------------|
   . . .  .       .     .    .    .
    hp  hp
|--787-8108--hp--hp---------------8-12-8-7-|
|-----------787-8108----10-7-8-10----------|
|--------------------9---------------------|
|------------------------------------------|
|------------------------------------------|
|------------------------------------------|

|--------------------|
|----------8---------|
|-----9-11---8~~-9---|Gtr 1
|--10----------------|
|--------------------|
|--------------------|

|---------7----------|
|----8-10------------|
|--9--------8~~-9----|Gtr 2
|--------------------|
|--------------------|
|--------------------|

Then Riff #1
Then Riff #2 with four 3,2,1 fret power chord hits, then
open E intro to "Everlasting"
            

comments powered by Disqus
↑ Back to top | Haunted Tabs for Shadow World. Lyrics for acoustic guitar and electric guitar. Tablatures and chords are parodies/interpretations of the original songs. You may use it for private study, scholarship, research or language learning purposes only