» » »

Haunted, One Kill Wonder Tabs (ver.1)

Artists:  A B C D E F G H I J K L M N O P Q R S T U V W X Y Z # 

One Kill Wonder Tabs (ver.1)

Haunted Tabs
Rating:
4/5 (2 votes)
One Kill Wonder lessons Tabs too difficult? Try these video lessons and learn fast
                Band- Haunted
Song- One Kill Wonder

Tuning: Eb

Riff A x2                                                               *
|----------------------------------------------------------------------|------|
|----------------------------------------------------------------------|------|
|----------------------------------------------------------------------|------|
|----7-----3------7----------------------------------------------------|-5--4-|
|-5-----5------5-----5---8/7-------------------------------------------|-5--4-|
|----------------------------10/8--666666b(7)66661066669666611666(8)(6)|-3--2-|

*only used as first ending

Riff B
|------------------------------|
|------------------------------|
|------------------------------|
|------------------------------|
|------------------------------|
|--7-7-6--4-6--7-7-6--9/7-6\7--|

Riff C
|------------------------------||--------||-----------------------------|
|------------------------------||--play--||-----------------------------|
|------------------------------||--riff--||-----------------------------|
|-----4-3--0h1-1------4-3------||---B----||----4-3--0h1-1-----4-3-4-----|
|--1---------------1-----------||--------||-1--------------1------------|
|--------------------------6/4-||--------||--------------------------4--|

Riff D
|---------------------------------------------------------------|-------|
|---------------------------------------------------------------|-------|
|---------------------------------------------------------------|-------|
|-----7---------------7----------------7---------------7--------|-5/4-2-|
|--5-----0-5h6p5---5-----0-5h6p5----5-----0-5h6p5---5-----0-5h6-|-5/4-2-|
|---------------------------------------------------------------|-3/2-0-|

Riff B
Riff C
Riff D

Riff E
|----------------------|----------------|---------------------|----------------|
|----------------------|----------------|---------------------|----------------|
|----------------------|----------------|---------------------|----------------|
|-----7----------------|-----7----------|------7--------------|-------7--------|
|--5-----0-5h6p5-5-4-2-|--5-----0-5h6p5-|-5-----0-5h6p5-5-4-2-|--5-----0-5h6p5-|
|----------------------|----------------|---------------------|----------------|

Riff F x3
|--------------------------------------------------------|
|--------------------------------------------------------|
|--------------------------------------------------------|
|-----7-------------7-----6------7-----------------------|
|--5-----8-7-3---5-----2------5-----8-7-3----------------|
|------------------------------------------11110300-3/2--|

Riff G
|-----------------------|
|-----------------------|
|-----------------------|
|-----------------------|
|----5-----6---7-----6--|
|--3-5-4-4-6-5-7-4-4-6--|
       .         .

Riff H
|-------------------------------||------||------|
|-------------------------------||-play-||-play-|
|-------------------------------||-riff-||-riff-|
|-----6h7-----------------------||---G--||---H--|
|--5----------6h7-----5h6-------||------||------|
|----------0-------0-------1p0--||------||------|
           .       .

Solo
|-----------------------------------------------------|------------------|
|--------------------------10-11-10-8-6-5-6-5-3-1-0h1-|--11-9--6\7--7/6--|
|-----------------------------------------------------|------------------|
|-------8---7----7--3/2p0-----------------------------|------------------|
|-----------------------------------------------------|------------------|
|--6666---6--666--------------------------------------|------------------|


|----------------------------------------ph--|
|--11-12-9-8-9/7-7---11-12-9-8-9/7-7--11--7--|
|--------------------------------------------|
|--------------------------------------------|
|--------------------------------------------|
|--------------------------------------------|

Gtr.2 during Riff B
|-----------------------|
|-----------------------|
|--15-----------15--14--|
|-----------------------|
|-----------------------|
|-----------------------|

Riff C
Riff E x2

Final Riff
|-----------------------------------------|
|-----------------------------------------|
|-----------------------------------------|
|------7-0-----3----4-4-4-4-4-4--5-5/4----|
|--5-5-----5-5------4-4-4-4-4-4--5-5/4----|
|-------------------2-2-2-2-2-2--3-3/2----|
            
Submit corrections

comments powered by Disqus
↑ Back to top | Haunted Tabs for One Kill Wonder. Lyrics for acoustic guitar and electric guitar. Tablatures and chords are parodies/interpretations of the original songs. You may use it for private study, scholarship, research or language learning purposes only