» » »

Now You Know Tabs (ver.1)

Artists:  A B C D E F G H I J K L M N O P Q R S T U V W X Y Z # 

Now You Know Tabs (ver.1)

Haunted
Rating:
0/5 (0 votes)

Hard to play? Try these video lessons and learn fast.
                Band- Haunted
Song- Now You Know

Gtr I (Eb Ab Db Gb Bb Eb) - 'Untitled'
Gtr II (Eb Ab Db Gb Bb Eb) - 'Untitled'

    Q=155                       1.                   2.
   4/4
    Gtr I
    PM----|   PM--|   PM----|     PM--| ~  PM--|             ~~~~~~~
    S S S S E S S E E S S S S   E S S E Q  E E E     E S S E Q  E Q
||----------------------------|-------------------||-----------------|
||o---------------------------|------------------o||-----------------|
||----------------------------|-------------------||-----------------|
||----------4-------5---------|-4-----------------||-4---------------|
||o---------4-------5---------|-4----------2-4-5-o||-4---------------|
||--2-2-2-2---2-2-2---2-2-2-2-|---2-2-2-5--0-2-3--||---2-2-2-4--5-4--|


  PM|   PM|   PM    PM------------------------|   PM|   PM      PM  PM
  E E E E E E E E E E E E S S S S S S S S   E E E E E E E E   E E E E E E Q
|-----------------------------------------|-----------------|---------------|
|-----------------------------------------|-----------------|---------------|
|-----------------------------------------|-----------------|---------------|
|-----2-----1---1-2-----------------------|-----2-----1---1-|-2---1---------|
|-----2-----1---1-2-------5-5-5-5-4-4-4-4-|-----2-----1---1-|-2---1---1-----|
|-0-0---0-0---0-----0-0-0-3-3-3-3-2-2-2-2-|-0-0---0-0---0---|---0---0---3-2-|


  PM|   PM|   PM      PM--|               PM|   PM|   PM      PM  PM
  E E E E E E E E   E E E E S S E E S S   E E E E E E E E   E E E E E E Q
|-----------------|---------------------|-----------------|----------------|
|-----------------|---------------------|-----------------|----------------|
|-----------------|---------------------|-----------------|----------------|
|-----2-----1---1-|-2-------------------|-----2-----1---1-|-2---1----------|
|-----2-----1---1-|-2-------------1---1-|-----2-----1---1-|-2---1---1------|
|-0-0---0-0---0---|---0-0-0-3-3-3---3---|-0-0---0-0---0---|---0---0---3-2--|


  E E E E E E E E
|--------------------|
|--------------------|
|--------------------|
|--------------------|
|-3-3-3-3-3-3-3-3----|
|-1-1-1-1-1-1-1-1----|


  E E E E E E E E   +W           E E E E E E E E   +E  E E E E E +Q
|-----------------|------------|-----------------|--------------------|
|-----------------|------------|-----------------|--------------------|
|-----------------|------------|-----------------|--------------------|
|-----------5-9-8-|-(8)--------|-----------5-9-8-|-(8)----------------|
|-8-5-7-----------|------------|-8-5-7-----------|-------5------------|
|-------0-0-3-7-6-|-(6)--------|-------0-0-3-7-6-|-(6)-0---6-5-3-(3)--|


  E E E E E E E E   +W           E E E E E E E E   E E E E E E E E
|-----------------|------------|-----------------|-----------------|
|-----------------|------------|-----------------|-----------------|
|-----------------|------------|-----------------|-----------------|
|-----------5-9-8-|-(8)--------|-----------5-9-8-|-----------------|
|-8-5-7-----------|------------|-8-5-7-----------|-3-3-3-3-3-3-3-3-|
|-------0-0-3-7-6-|-(6)--------|-------0-0-3-7-6-|-1-1-1-1-1-1-1-1-|


  Q  E E E Q  Q  E E Q  E E Q.    E E E Q H Q  E Q
|-----------------------------------------------------|
|-----------------------------------------------------|
|-----------------------------------------------------|
|----------4--5-------------------------4-3-----------| the specified notes might be bass, or a quieter guitar
|-2--------2--3--3-2-0------2-----------2-1-----------|
|-0--0-0-0--------------3-2-0-----0-0-0-----2--3-3----|
                 \......../                 \..../

                  

                                                                  |-3-|
  E E E E E E E E E E E E E E E E   E E E E E E E E   E E E E E E S S S E
|---------------------------------|-----------------|----------------------|
|---------------------------------|-----------------|----------------------|
|---------------------------------|-----------------|----------------------|
|-----5-----4---4-5---------------|-----5-----4---4-|-5---------3-2-3-2-0--|
|-----5-----4---4-5---------4---4-|-----5-----4---4-|-5-------5------------|
|-3-3---3-3---3-----3-3-3-6---6---|-3-3---3-3---3---|---3-3-3--------------|


  E E E E E E E E E E E E E E E E E E E E E E E E E E H.
|-----------------------------------------------------------|
|-----------------------------------------------------------|
|-----------------------------------------------------------|
|-----4-----3---3-4---------------------4---3---3-4---3-----|
|-----4-----3---3-4-----------3---3-----4---3---3-4---3-----|
|-2-2---2-2---2-----2-2-2-2-5---5---5-2---2---2-----2-1-----|


    E E E E E E E E E E E E E E     E E E E E E E S S E  S S E  S S E  E
|--------------------------------|------------------------------------------|
|o-------------------------------|-----------------------------------------o|
|--------------------------------|------------------------------------------|
|--2-----1-----2-----------------|-2-----1-----2----------------------------|
|o-2-----1-----2-2-2-2-2-2-2-2---|-2-----1-----2-3-3-3--3-3-3--3-3-3--3----o|
|----3-2---2-3---0-0-0-0-0-0-0---|---3-2---2-3---1-1-1--1-1-1--1-1-1--1-----|


  E E E E E E E E E E
|------------------------|
|------------------------|
|------------------------|
|-2-----1----------------|
|-2-----1-----3-3-3-3----|
|---3-2---2-3-1-1-1-1----|


  E E E E E E E E   +H     +E  Q.     E E E E E E E E   +E  E E E E E +Q
|-----------------|-----------------|-----------------|--------------------|
|-----------------|-----------------|-----------------|--------------------|
|-----------------|-----------------|-----------------|--------------------|
|-----------5-9-8-|-(8)----(8)------|-----------5-9-8-|-(8)----------------|
|-8-5-7-----------|------------3----|-8-5-7-----------|-------5------------|
|-------0-0-3-7-6-|-(6)----(6)-1----|-------0-0-3-7-6-|-(6)-0---6-5-3-(3)--|


  E E E E E E E E   +H     +E  Q.     E E E E E E E E   E E E E S S E E E
|-----------------|-----------------|-----------------|--------------------|
|-----------------|-----------------|-----------------|--------------------|
|-----------------|-----------------|-----------------|--------------------|
|-----------5-9-8-|-(8)----(8)------|-----------5-9-8-|--------------------|
|-8-5-7-----------|------------3----|-8-5-7-----------|-3-6-5-3-5-5-3-2-3--|
|-------0-0-3-7-6-|-(6)----(6)-1----|-------0-0-3-7-6-|-1-4-3-1-3-3-1-0-1--|


Duration Legend
---------------
W - whole; H - half; Q - quarter; E - 8th; S - 16th; T - 32nd; X - 64th; a - acciaccatura
+ - note tied to previous; . - note dotted; .. - note double dotted
Uncapitalized letters represent notes that are staccato (1/2 duration)
Irregular groupings are notated above the duration line
Duration letters will always appear directly above the note/fret number it represents the
duration for.  Duration letters with no fret number below them represent rests.  Multi-
bar rests are notated in the form Wxn, where n is the number of bars to rest for.  Low
melody durations appear below the staff

Tablature Legend
----------------
 h   - hammer-on
 p   - pull-off
 b   - bend
 pb  - pre-bend
 r   - bend release (if no number after the r, then release immediately)
 /\  - slide into or out of (from/to "nowhere")
 s   - legato slide
 S   - shift slide
  - natural harmonic
[n]  - artificial harmonic
n(n) - tapped harmonic
 ~   - vibrato
 tr  - trill
 T   - tap
 TP  - trem. picking
 PM  - palm muting
\n/  - tremolo bar dip; n = amount to dip
 \n  - tremolo bar down
 n/  - tremolo bar up
/n\  - tremolo bar inverted dip
 =   - hold bend; also acts as connecting device for hammers/pulls
 <>  - volume swell (louder/softer)
 x   - on rhythm slash represents muted slash
 o   - on rhythm slash represents single note slash

Misc Legend
-----------
 |  - bar
||  - double bar
||o - repeat start
o|| - repeat end
*|  - double bar (ending)
 :  - bar (freetime)
 $  - Segno
 &  - Coda
Tempo markers -  = BPM(8/16=s8/s16), where s8 = swing 8ths, s16 = swing 16ths
            
Hard to play? Try these video lessons and learn fast. | Correct




comments powered by Disqus
↑ Back to top | Tablatures and chords are parodies/interpretations of the original songs. You may use it for private study, scholarship, research or language learning purposes only