» » »

Hollow Ground Bass tabs (ver.2)

Artists:  A B C D E F G H I J K L M N O P Q R S T U V W X Y Z # 

Hollow Ground Bass tabs (ver.2)

Haunted
Rating:
0/5 (0 votes)

Hard to play? Try these video lessons and learn fast.
                Band- Haunted
Song- Hollow Ground

chorus x2
|-------------------------------------------------|
|-------------------------------------------------|
|-------------------------------------------------|
|-6-66666-66665-5555-7778880-00000-00002223335555-|

verse 1 x2
|-----------------------------------------|
|-------------------------2-45754----2----|
|----32-23532---32-235---3----------3-321-|
|-111--------111------000--------000------|

verse 2 x2
|------------------------------------------|
|------------------------------------------|
|---------------3223335-------------2---57-|
|-1-11111-111111-------0-00000-00000-3-0---|

interlude
|-----------------|---------------|----------------|-------------------------|
|-----------------|----11---------|----11----------|----11-------------------|
|-------------5-7-|---9--9-7-5-45-|---9--9-7-5-454-|---9--9-7-5-454-3~0--3~5-|
|0---9---7-757----|-00------0-0---|-00------0-0----|-00------0-0-------------|

play the interlude again, but instead of bending the 3, play this:
|-------------------------------|
|-------------------------------|
|-3-----------------------------|
|----2-3---0000-0000-2223335555-|

verse 2 x2
verse 1 x2
chorus x2

ending
|--------------|
|--------------|
|--------------|
|-7-5-3--4-2-0-| play this until the solo starts, then play this:

|-------------------|
|-------------------|
|----------3333-555-|
|-1/00-0113---------|
            
Hard to play? Try these video lessons and learn fast. | Correct




comments powered by Disqus
↑ Back to top | Tablatures and chords are parodies/interpretations of the original songs. You may use it for private study, scholarship, research or language learning purposes only