» » »

Hate Song Tabs (ver.1)

Artists:  A B C D E F G H I J K L M N O P Q R S T U V W X Y Z # 

Hate Song Tabs (ver.1)

Haunted
Rating:
0/5 (0 votes)

Hard to play? Try these video lessons and learn fast.
                                            THE HAUNTED - HATE SONG
                           From the Album THE HAUNTED
                         Copyright 1998 Earache Records
                              
                           Version 1.5 - April 1999
                                 


Check out DEATH WARP, With More Transcriptions On It:

Check Out 's Web Page, With More Transcriptions On It: 
               /index.html 
        

.  - palm mute                /  - slide up to         
\  - slide down to            ~  - vibrato             
h  - hammer on                b  - bend 
p  - pull off                 Suffixes for bend    
t  - tap with fin           	   f - full bend    h - half bend
*  - see comment                   r - release      t - tap bend
X  - percussion mute               ~ - vibrato bend
"  - tremelo note             () - ghost note, sustained note


Tuning: Eb (in otherwords, all strings down 0.5 steps)


Intro - feedback and drum stick clashes

|-----------------------------------|
|-----------------------------------|
|-----------------------------------|	Gtr 1
|-----------------------------------|
|--4--4--4--5--4--4--4-8------------|
|-0200200200300200200206------------|
  . .. .. .. .. .. .. .

|-----------------------------------|
|-----------------------------------|
|-----------------------------------|	Gtr 2
|-----------------------------------|
|----------------------8------------|
|-0-00-00-00-00-00-00-06------------|
  . .. .. .. .. .. .. . 

|-----------------------------------|
|-----------------------------------|
|-----------------------------------|	Gtrs 1+2
|-----------------------------------|
|-------------------8---8-----------|
|-0-00-00-00-00-00-060006-----------|
  . .. .. .. .. .. . ...

  Riff A1 (verse)
|-----------------------------------|
|-----------------------------------|
|-----------------------10\9\7/9----|	Gtrs 1+2
|-----------------------------------|
|-----------------32-52-8-\7\5/7----|
|-00-000-000-000-0100300------------|
  .. ... ... ... .  .  .

|-----------------------------------|
|-----------------------------------|
|--9-99-9-99-10\9--7\4--------------|	Gtrs 1+2
|-----------------------------------|
|--7-77-7-77-8-\7--5\2-3p2p0--------|
|-0-0--0-0--0----0----0------2------|
  . .  . . .     .    .

Repeat A1

  Riff B (pre-chorus)
|---------------------------------------------------------------|
|---------------------------------------------------------------|
|---------------------------------------------------------------|Gtrs1+2
|-------------777777--------888888--------777777----------------|
|---------------------------------------------------------------|
|-22223333222255555533332222666666333322225555553333222232------|
									
Repeat B

Riff A2
|----------------------------------|
|----------------------------------|
|----------------------10\9\7/9----|	Gtrs 1+2
|----------------------------------|
|-----------------3252-8-\7\5/7----|
|-00-000-000-000-01030-------------|
  .. ... ... ... .    

|----------------------------------|
|----------------------------------|
|--9-99-9-99-10\9--7\4-------------|	Gtrs 1+2
|----------------------------------|
|--7-77-7-77-8-\7--5\2-3p2p0-------|
|-0-0--0-0--0----0----0------2-----|
  . .  . . .     .    .

Repeat A1
Repeat B twice

Riff C1 (chorus)
|----------------------------------|
|----------------------------------|
|----------------------------------|	Gtrs 1+2
|----------------------------------|
|-2252-7h8-8-2225-3p2p0------------|
|-0360-------0306------2-----------|
  
Riff C2
|----------------------------------|
|----------------------------------|
|----------------------------------|	Gtrs 1+2
|----------------------------------|
|-2252-7h8-8-2-22-2----------------|
|-0360-------0-33-0----------------|
               .. .

Bridge

|----------------------------------|
|----------------------------------|
|----------------------------------|	Gtrs 1+2
|----------------------------------|
|-2----(2)----(2)----(2)----(2)----|
|-0----(0)----(0)----(0)----(0)----|
				
 *
|-------------------------------------|
|-------------------------------------|
|--9-99-9-99-12-12-12-12-/12-12-12-12-|	Gtrs 1+2
|-------------------------------------|
|--7-77-7-77-10-10-10-10-/10-10-10-10-|
|-0-0--0-0----------------------------|
  . .  . . .     

*Random slide up from a low fret

Riff A3
|------------------------------------|
|------------------------------------|
|------------------------10\9\7/9----|	Gtrs 1+2
|------------------------------------|
|-2---------------32-52--8-\7\5/7----|
|-0---------------100300-------------|
                    .  .    
 
|----------------------------------|
|----------------------------------|
|--9-99-9-99-10\9--7\4-------------|	Gtrs 1+2
|----------------------------------|
|--7-77-7-77-8-\7--5\2-3p2p0-------|
|-0-0--0-0--0----0----0------2-----|
  . .  . . .     .    .

Repeat B
Repeat C

Riff C3
|----------------------------------|
|----------------------------------|
|----------------------------------|	Gtrs 1+2
|----------------------------------|
|-2252-7h8-8-2-22-2-22-------------|
|-0360-------0-33-0-33-00----------|
               ..   .. ..

Riff D1  *                      
|---------------------------------------|
|---------------------------------------|
|---------------------------------------|	Gtrs 1+2
|---------------------------------------|
|--10-9-7-5---------10-9-7-5---12121212-|
|-0--0-0-0-08075\4-0--0-0-0-08-10101010-|
  .  . . . . .     .  . . . .

*All “10”s are tenth fret notes 

Repeat D1 X2

Riff D2                     
|-------------------------------------------------|
|-------------------------------------------------|
|-------------------------------------------------|	Gtrs 1+2
|-------------------------------------------------|
|10-9-7-5------7-6p5-10-------12121212---12121212-|
|-0--0-0-0-0-0-----0--0-0-0-0-10101010-0-10101010-|
  .  . . . . .     .  . . . .          .

Repeat D1 X2

Riff E Solo

Solo Key:

b=bend
N.H =natural harmonic
~= vibrato with bar
s= scoop tremolo bar
d=whammy bar dive


|----------14"-15"-14"---12"---14"--15"---19~~"---|
|-------------------------------------------------|
|-------------------------------------------------|
|-------------------------------------------------|
|-------------------------------------------------|
|-------------------------------------------------|

           N.H          N.H
|---------s19~------------------------------------|
|-----------------------19~~d---------------------|
|-------------------------------------------------|
|-------------------------------------------------|
|-------------------------------------------------|
|-------------------------------------------------|


|---------------------------------------------------------|
|------------------------------11bu---10bu-----11~~~11-**-|
|------11bu----12bu---------------------------------------|
|---------------------------------------------------------|
|---------------------------------------------------------|
|---------------------------------------------------------|

**=dive with bar, then slowly raise above original pitch ( locking trem. 
needed), then use vibrato with bar....

|---------------------------------------------------------|
|---------------------------------------------------------|
|-----15"---14"--12"--11"---------------------------------|
|-------------------------------14"---13"~----------------|
|---------------------------------------------------------|
|---------------------------------------------------------|



Riff E (under solo)

|---------------------------------------|
|---------------------------------------|
|---------------------------------------|	Gtr 1 
|---------------------------------------|
|-10----(10)----(10)----(10)----(10)----|
|--8-----(8)-----(8)-----(8)-----(8)----|


  Outro
|---------------------------------------|
|---------------------------------------|
|---------------------------------------|	Gtrs 1+2
|---------------------------------------|
|---------------------------------------|
|-00-000-000-000-000-000-000-0-*653035--|
  .. ... ... ... ... ... ... .  .....

*Not 100ÙÚ¿¿õÚ¿¿Û¿¿ Û¿¿BÛ¿¿]Û¿¿wÛ¿¿ÞÛ¿¿Ü¿¿6Ü¿¿iÜ¿¿…Ü¿¿—Ü¿¿¾Ü¿¿ÚÜ¿¿ýÜ¿¿Ý¿¿(Ý¿¿|Ý¿¿ Ý¿¿¾Ý¿¿ØÝ¿¿ñÝ¿¿Þ¿¿Þ¿¿JÞ¿¿eÞ¿¿Þ¿¿ure about this

|-------------------------------------------|
|-------------------------------------------|
|-------------------------------------------|	Gtrs 1+2
|-------------------------------------------|
|-------------------------------------------|
|-00-000-000-0-653035-00-000-0-653035653035-|
  .. ... ... . ...... .. ... . ............

|--------------------------------------------|
|--------------------------------------------|
|--------------------------------------------|	Gtrs 1+2
|--------------------------------------------|
|------------------------------------------8-|
|-00-0-653035-00-0-653035-00-0-653035-00-0-6-|
  .. . ...... .. . ...... .. . ...... .. . 

|---------------------------------------------|
|---------------------------------------------|
|---------------------------------------------|	Gtrs 1+2
|---------------------------------------------|
|------------------------------------------54-|
|-00-0-653035-00-0-653035-00-0-653035-00-0-32-|
  .. . ...... .. . ...... .. . ...... .. . 

|--------------------------------------------|
|--------------------------------------------|
|--------------------------------------------|	Gtrs 1+2
|--------------------------------------------|
|--------5\4---------8--------5\4---------8--|
|-00-000-3\2-000-000-6-00-000-3\2-000-000-6--|
  .. ...     ... ...   .. ...     ... ...

|----------------------------------------------|
|----------------------------------------------|
|----------------------------------------------|	Gtrs 1+2
|----------------------------------------------|
|--------2---------5--------2----2\1----2\1-2--|
|-00-000-3-000-000-6-00-000-3-00-3\2-00-3\2-0--|
  .. ...   ... ...   .. ...   ..     ..     .


Check out DEATH WARP, With More Transcriptions On It:

Check Out 's Web Page, With More Transcriptions On It: 
               /index.html
            
Hard to play? Try these video lessons and learn fast. | Correct




comments powered by Disqus
↑ Back to top | Tablatures and chords are parodies/interpretations of the original songs. You may use it for private study, scholarship, research or language learning purposes only