» » »

Haunted, Godpuppet Tabs (ver.1)

Artists:  A B C D E F G H I J K L M N O P Q R S T U V W X Y Z # 

Godpuppet Tabs (ver.1)

Haunted Tabs
 Rating:
4/5 (4 votes)
Godpuppet lessons Tabs too difficult? Try these video lessons and learn fast
1
                Band- Haunted
Song- Godpuppet

Tuning: 1/2 step down Drop D

*note*
Only low 4 strings shown except for solo

Intro:
|----------------------------------|----------------------------------|
|----------------------------------|----------------------------------|
|----------------------------------|-------------------3--------------|
|-0000300020003-3p0-7000300020003--|-3333633353336-6p3---333633353336-|
  .... ... ...       ... ... ...     .... ... ...        ... ... ...

Riff A
|----------------------------------------------------|
|----------------------6-5----------------------6-5--|
|--4h5h7--4h5h7--4h5h7------4h5h7--4h5h7--4h5h7------|
|----------------------------------------------------|

Riff B (verse riff)                            b2 x2
|---------------------------------------------|-----------------|
|---------------------------------------------|------------3----|
|---2p1-1h2----2p1-1h2----2p1-1h2----2p1-1h3--|---2p1-1h2----3--|
|-2----------2----------2----------2----------|-2---------------|

Riff C                  c2         c3                     c4
|----------------------|----------|----------------------|--------|
|----------------------|----------|----------------------|--------|
|----------------------|-6-4-6-7--|----------------------|--------|
|-0-0000-0-0000-0-0000-|----------|-0-0000-0-0000-0-0000-|-00-00--|
  . .... . .... . ....              . .... . .... . ....   .. ..

Riff B,b2
Riff B, then end with:
|--------------------------------------|
|------------3-----------------4-------|
|---2p1-1p2----3------3p2-2h3-----3-0--|
|-2----------------3--------------1-0--|

Riff C,c2
Riff C,c2

Solo:
|-------------------14-15-17-19/--|-----|--20fb~*----------------------|
|--14*/9--14-16-17----------------|--r--|------------------------------|
|---------------------------------|--e--|------------------------------|
|---------------------------------|--s--|----------------7fb-----------|
|---------------------------------|--t--|------------------------------|
|---------------------------------|-----|------------------------------|
                                   ^gtr2^
During Rest (gtr.2)
|------------------------------------|
|------------------------------------|
|---2p1-1h2----2p1-1h2----2p1-1h2----|
|-2----------2----------2----------0-|

Riff C x2
Riff c2, C, c2

Riff D
|---------------------------------------------------------------------|
|---------------------------------------------------------------------|
|---------------------------------------------------------------------|
|-0000-6-00-5-00-3-00--0000-6-00-5-00-3/5/6--0000-6-00-5-00-3-00-6-5--|
  ....   ..   ..   ..  ....   ..   ..        ....   ..   ..   ..

Riff E x2
|----------------------------------------------|
|----------------------------------------------|
|------5-----4----3----------5-----4----3/4/5--|
|-0000---000---00---00--0000---000---00--------|
  ....   ...   ..   ..  ....   ...   ..

Riff F
|------------------------------------------|
|-----7----6--3----7--6--3/5/6----7--6--3--|
|-----5----4--3----5--4--3/5/6----5--4--3--|
|-000---00-------0--------------0----------|
  ...   ..       .              .

Ending:
|------------------|
|--0h2\4/3---------|
|--0h2\4/3---------|
|-----------33-33--|
            
Submit corrections

comments powered by Disqus
↑ Back to top | Haunted Tabs for Godpuppet. Lyrics for acoustic guitar and electric guitar. 1 Tablatures and chords are parodies/interpretations of the original songs. You may use it for private study, scholarship, research or language learning purposes only