» » »

Everlasting Tabs (ver.1)

Artists:  A B C D E F G H I J K L M N O P Q R S T U V W X Y Z # 

Everlasting Tabs (ver.1)

Haunted
Rating:
0/5 (0 votes)
Tabs too difficult? Try these video lessons and learn fast.
                Band- Haunted
Song- Everlasting

Intro:

Riff A                                       a2
|-------------------------------------------|--------------------|
|-------------------------------------------|--------------------|
|-------------------------------------------|--------------------|
|-------------------------------------------|--------------------|
|-------------------------------------------|--3-2-0-hold chord--|
|-12/-0000-3p2-000000-3p2-000000-3p2-000000-|--1-2-3-------------|

Fill 1      Then:
|----------|-----------|-----|-----------|-------------------|
|----------|-----------|-----|-----------|-------------------|
|----------|--Riff-A---|-----|--Riff-A---|-------------------|
|----------|----w/o----|-----|----w/o----|-------------------|
|----------|--the-12/--|-2-1-|--the-12/--|-----------5--(5)--|
|-00-32-20-|-----------|-----|-----------|-0-000-00----------|
  .. .. ..

Riff B
|--------------------------------------------------------------|
|--------------------------------------------------------------|
|--------------------------------------------------------------|
|--------------------------------------------------------------|
|-------------------------4-3----------------------------------|
|--0000-3p20--3p20--3p20-------0000--3p20--3p20--3p2--0-2-3-5--|
^^all '0's in this riff are open fret notes^^

Riff C
|-------------------------------------|
|-------------------------------------|
|-------------------------------------|
|--------5--1-------------------------|
|--------------5-------2--------------|
|--0000------------3-4----434-434-34--|
                   . . .  ... ... ..

B.1
|-------------------------|
|-------------------------|
|-------------------------|
|-------------------------|
|-------------------------|
|--0000-3p20--3p20--3p20--|

Riff D
|------------------------------------------------|
|------------------------------------------------|
|------------------------------------------------|
|--2h3-5------2h3-5--------2h3-5------2h3-5------|
|--------3-3--------2-2----------3-2--------2-2--|
|------------------------------------------------|

Riff B
Riff C

B.2
|---------------------------------|
|---------------------------------|
|---------------------------------|
|---------------------------------|
|---------------------------------|
|-0000--3p20--3p20--3p2--0-2-3-5--|

Riff E          e2
|--------------|-----------------------------------|
|--------------|-----------------------------------|
|--10----------|------10---------------------------|
|---0----6--7--|------12---------------------------|
|--10----4--5--|------10---------------------------|
|--------------|-11"------11-11-11-9-9-11-12/11/9--|
                  .        .  .  . . .  .  .  . .
Riff E
Play Riff A and a2, but repeat the last chord a few times
Riff B
Riff C
Riff B.2
Riff E,e2 x2

Bridge:
|-----------------------------------|
|-----------------------------------|
|--2--4--2-------2--4--2-4----------|
|-----------4-3------------3-3fb-4--|
|-----------------------------------|
|-----------------------------------|

Riff G                            [1,3]         [2,4]
|--------------------------------|-------------|----------|
|--------------------------------|-------------|----------|
|--------------------------------|-------------|----------|
|-----------------------5--------|-6/5/3--5----|----------|
|--6-6p4-4h6/7--7p6-4-6----6p4h6-|----------6--|--4444-7--|
|--------------------------------|-------------|----------|
^^all notes in this riff palm muted^^

Solo:
|--------------------------------------------------------
|--7--5--3/2---------------------------------------------
|------------5/4-5-5/7-----------------------------------
|--------------------------------------------5--------8--
|-----------------------6-6p4-4h6/7--7p6-4-6----6p4h6----
|--------------------------------------------------------

 ----------------------ph-----------------------------|
 ----7-6----------------7-----8-7-8-10-8--7-8-10-8-7--|
 --7-----7-6-4--6-7-6-4---7---------------------------|
 -----------------------------------------------------|
 -----------------------------------------------------|
 -----------------------------------------------------|

Riff E
Riff G (which from now on is no longer palm muted)
Riff E
Riff G Repeat to finish
            
Tabs too difficult? Try these video lessons and learn fast.


comments powered by Disqus
↑ Back to top | Tablatures and chords are parodies/interpretations of the original songs. You may use it for private study, scholarship, research or language learning purposes only