» » »

Haunted, Doa Tabs (ver.1)

Artists:  A B C D E F G H I J K L M N O P Q R S T U V W X Y Z # 

Doa Tabs (ver.1)

Haunted Tabs
Rating:
0/5 (0 votes)
Doa lessons Tabs too difficult? Try these video lessons and learn fast
                "(1)
Band- Haunted
Song- DOA

RiffA - Both Guitars
|-------------------------------------------------------------------------------------------|
|-------------------------------------------------------------------------------------------|
|-------------------------------------------------------------------------------------------|
|-------------------------------------------------------------------------------------------|
|-22-22-2-22-22-2-22-2--22-2-22-2-322322-22-22-2-22-22-2-22-2--22-22-2-22-22-322322-0-2-3-5-|<-don't play this
|-00-00-0-00-00-0-00-0--00-0-00-0-100100-00-00-0-00-00-0-00-0--00-00-0-00-00-100100---------|  during solo 1
  .. .. . .. .. . .. .  .. . .. . ...... .. .. . .. .. . .. .  .. .. . .. .. ......
                                  __3__                                     __3__
Riff B - Both Guitars
|------------------------------------------------------|
|------------------------------------------------------|
|------------------------------------------------------|
|------------------------------------------------------|
|---------0-2-3-5---------0-2-5-3-----5-3-2------------|
|-0-0-0-0---------0-0-0-0---------0-0-------5-5320-----|
  . . . .         . . . .         . .       . ....

Riff B.1 - Both Guitars
|-----------|
|-----------|
|-----------|
|-----------|
|-3-3--3-3--|
|-1-1--1-1--|

Riff C - Chorus Riff - Guitar.1
|--------------------------------------------------------------------------------------------------|
|--------------------------------------------------------------------------------------------------|
|--------------------------------------------------------------------------------------------------|
|------------------------------------------------------------------------------------4-5-9-8-------|
|-2-2-------------------------2-2-s6-6-4-4-4-4-3-3-3-5-2-----------------------------4-5-9-8-------|
|-0-0-s6-6-4-4-4-4-3-3-3-2-2--0-0-------------------------0-0-s6-6-4-4-4-4-3-3-3-2-2-2-3s7-6-7h9p7-|

Riff C - Chorus Riff - Guitar.2
|----------------------------------------------------------------------------------------------|
|----------------------------------------------------------------------------------------------|
|----------------------------------------------------------------------------------------------|
|------8-8-6-6-6-6-5-5-5-4-4-------8-8-6-6-6-6-5-5-5-7-4-------8-8-6-6-6-6-5-5-5-4-4--4-5-9-8--|
|-2-2--x-x-x-x-x-x-x-x-x-x-x--2-2--x-x-x-x-x-x-x-x-x-x-x--2-2--x-x-x-x-x-x-x-x-x-x-x--4-5-9-8--|hold chord
|-0-0-s6-6-4-4-4-4-3-3-3-2-2--0-0-s6-6-4-4-4-4-3-3-3s5s2--0-0-s6-6-4-4-4-4-3-3-3-2-2--2-3s7-6--|

solo1
|--------------------------------------------------------------------------------------------------------------------------|
|--------------------14--------15--------16-15-13--12-16p15p13-12~---------------18-17-17-20-17tr18------------------------|
|12h15p12----12121512---121212----121216-----------------------------18-18-18-17---------------------------------17b~-17b~-|
|--------12~---------------------------------------------------------------------------------------------------------------|
|--------------------------------------------------------------------------------------------------------------------------|
|-----------------------------------------------------------------------------------------------------------0-0------------|
              ..   .    . . .     . . .            .                  . .                                   . .

Riff D let all ring, one guitars plays it clean
|--------------------|
|--------------------|
|----------------0---|
|-----5--4--5--5-----|
|---2--2--2--2-------|
|-0--0--0--2---------|

Riff D.1 Distorded, Bridge Pick-Up
|---------------------------------|
|---------------------------------|
|---------------------------------|
|---------------------------------|
|2----------------------------3~--|
|0-s2-3-5-3-0-2-3-3-0-3-5-3-2-----|

Riff D.2 Solo Rythm
|--------------------------------|
|--------------------------------|
|--------------------------------|
|--------------------------------|
|--------------------------------|
|-0-2-3-5-3-0-2-3-5-2-0-2-3-5-3--|
  . . . . . . . . . . . . . . .

Solo2
|-----------------------------------------------------------------------------------------------------|
|----------------------12-9~-------------9"-------------7---6-6--7--10-10-10--------------------------|
|---------------9-11-9--------9"-10"-12"---13"-10"-9"---9b--8b8b-9b-12b12b12b--s1010-s88-s66-s44-3-2~-|
|--------7-9-10---------------------------------------------------------------------------------------|
|7-9-10-----------------------------------------------------------------------------------------------|
|-----------------------------------------------------------------------------------------------------|
 . . .   . . .

Rythm gutar stars playin riff D            *                        *Rythm guitar Plays:
--------------------------------------------------                 |-------------------|
--------------------------------12~11-9~8--7-7----                 |-------------------|
--9~8~-6~7~-9~8~-6~7~-9~8~-6~7~------------9b9b-r-                 |-------------------|
--------------------------------------------------                 |-------------------|
--------------------------------------------------                 |-3-3-3-3----3-3----|
--------------------------------------------------                 |-1-1-1-1----1-1----|
"            
Submit corrections

comments powered by Disqus
↑ Back to top | Haunted Tabs for Doa. Lyrics for acoustic guitar and electric guitar. Tablatures and chords are parodies/interpretations of the original songs. You may use it for private study, scholarship, research or language learning purposes only