» » »

Haunted, Doa Bass tabs (ver.1)

Artists:  A B C D E F G H I J K L M N O P Q R S T U V W X Y Z # 

Doa Bass tabs (ver.1)

Haunted Tabs
 Rating:
4/5 (4 votes)
Doa lessons Tabs too difficult? Try these video lessons and learn fast
1
                "(1)

D.O.A (Bassline)
As recorded by The Haunted
(From the 2003 Album ONE KILL WONDER)

	

Words by Anders Björler, Marco Aro Music by Anders Björler, Jensen

Gtr I (D G C F) - 'Bass'

 Intro          Verse
  Q=110
 4/4
  Gtr I
  Wx3            S S S S S S S S S S S S S S S S
|------------||----------------------------------|
|------------||o---------------------------------|
|------------||o---------------------------------|
|------------||--0-0-0-0-0---0-0-0-0-0---0-0-0---|


  S S S S S S S S S S T T S T T S T T S
|---------------------------------------|
|---------------------------------------|
|---------------------------------------|
|-0-0-0-0-0---0-0-0-0-0-0-0-0-0-0-0-0-0-|


  S S S S S S S S S S S S S S S S   S S S S S S S S S S T T S S S S S
|---------------------------------|------------------------------------||
|---------------------------------|---------------------------------5-o||
|---------------------------------|---------------------------5h7h8---o||
|-0-0-0-0-0---0-0-0-0-0---0-0-0---|-0-0-0-0-0---0-0-0-0-0-0-0----------||


   Pre-Chorus
    S S S S S S S S S S S S S T T S S
||------------------------------------|
||o---------------5---------------5---|
||o---------5h7h8-----------5h7h8---8-|
||--0-0-0-0---------0-0-0-0-----------|


                                     2/4
  S S S S S S S S S S S S S S S S     S S E S S E
|----------------------------------||--------------||
|---------------5-----------------o||--------------||
|---------5h7h8-----8---1---------o||--------------||
|-0-0-0-0---------0---0---0-3-2-1--||-3-3---3-3----||


   Chorus
    $
   4/4
    E E S S S S S S S S S S S S   E E S S S S S S S S S S E
||------------------------------|----------------------------|
||o-----------------------------|----------------------------|
||o-----------------------------|----------------------------|
||--0-0-0S3-3-3-3S2-2-2-2S1-1-1-|-0-0-0S3-3-3-3S6-6-6-6-6-6\-|


  E E S S S S S S S S S S S S
|-----------------------------|
|-----------------------------|
|-----------------------------|
|-0-0-0S3-3-3-3S2-2-2-2S1-1-1-|


 1.                             2.
                                              To Coda
  E. S +E  E +S  S +E  S S E     E. S +E  E +S  E. Q
|-----------------------------||-----------------------||
|----------------------------o||-----------------------||
|----------3-(3)-2-(2)---2---o||-----------------------||
|-1--4-(4)-------------4---4--||-1--4-(4)-1-(1)-4--1---||


 Guitar Solo
  S S S S S S S S S S S S S S S S   S S S S S S S S S S S S S S S S
|---------------------------------|---------------------------------|
|---------------------------------|---------------------------------|
|---------------------------------|---------------------------------|
|-0-0-0-0-0-0-0-0---0-0-0-0-1-1-1-|-1-1-0-0-0-0-0-0---0-0-0-0-3-3-3-|


  S S S S S S S S S S S S S S S S   S S S S S S S S S S S S S S S S
|---------------------------------|------------------------------------||
|---------------------------------|------------------------------------||
|---------------------------------|------------------------------------||
|-3-3-0-0-0-0-0-0---0-0-0-0-1-1-1-|-1-1-0-0-0-0-0-0-0-0-0-0-0-0-0-0----||


   Verse
    S S S S S S S S S S S S S S S S
||----------------------------------|
||o---------------------------------|
||o---------------------------------|
||--0-0-0-0-0---0-0-0-0-0---0-0-0---|


  S S S S S S S S S S T T S T T S T T S   S S S S S S S S S S S S S S S S
|---------------------------------------|----------------------------------|
|---------------------------------------|----------------------------------|
|---------------------------------------|----------------------------------|
|-0-0-0-0-0---0-0-0-0-0-0-0-0-0-0-0-0-0-|-0-0-0-0-0---0-0-0-0-0---0-0-0----|


                                           Pre-Chorus
  S S S S S S S S S S T T S S S S S         S S S S S S S S S S S S S T T S S
|------------------------------------||-||------------------------------------|
|---------------------------------5-o||-||o---------------5---------------5---|
|---------------------------5h7h8---o||-||o---------5h7h8-----------5h7h8---8-|
|-0-0-0-0-0---0-0-0-0-0-0-0----------||-||--0-0-0-0---------0-0-0-0-----------|


                                      D.S. al Coda
                                     2/4
  S S S S S S S S S S S S S S S S     S S E S S E
|----------------------------------||----------------||
|---------------5-----------------o||----------------||
|---------5h7h8-----8---1---------o||----------------||
|-0-0-0-0---------0---0---0-3-2-1--||-3-3---3-3------||


 Interlude
  &
 4/4
  Wx4          H    H      H    H      H    H      H    H
|------------|-----------|-----------|-----------|-----------||
|------------|-----------|-----------|-----------|-----------||
|------------|-2----1----|-----------|-2----1----|-----------||
|------------|-----------|-3----2----|-----------|-3----2----||


 Guitar Solo
  S S E E S S S S E S S E   S S E E S S S S E S S E
|-------------------------|-------------------------|
|-------------------------|-------------------------|
|-------------------------|-------------------------|
|-0h2-2-2-2-2-0h2-2-2h3-3-|-0h2-2-2-2-2-0h2-2-2h3-3-|


  S S E E S S S S E S S E   S S E E E  Q  S S S S
|-------------------------|-----------------------|
|-------------------------|-------------------5---|
|-------------------------|-----------/7--5h7---7-|
|-0h2-2-2-2-2-0h2-2-2h3-3-|-0h2-2-2p0-------------|


  S S E E S S S S E S S E   S S E E S S H
|-------------------------|------------------|
|-------------------------|------------------|
|-------------------------|------------------|
|-0h2-2-2-2-2-0h2-2-2h3-3-|-0h2-2-2-2-2------|


  S S E E S S S S E S S E   S S E S S E E E E E
|-------------------------|------------------------||
|-------------------------|------------------------||
|-------------------------|---------------5--------||
|-0h2-2-2-2-2-0h2-2-2h3-3-|-3h5-5-5h7-7-7---7-5----||


    E E E E E E E E   E E E E E E E E    E E E E E E E E
||------------------|-----------------|------------------|
||o-----------------|-----------------|------------------|
||o-----------------|-----------------|------------------|
||--7-7-7-7-6-6-6-6-|-3-3-3-3-2-2-2-2-|-/7-7-7-7-6-6-6-6-|


  E E E E E E E E     S S E S S E Q  S S E
|------------------||------------------------||
|-----------------o||------------------------||
|-5-5-5-5-4-4-4-4-o||------------------------||
|------------------||-1-1---1-1------1-1-----||


 Chorus
  E E S S S S S S S S S S S S   E E S S S S S S S S S S E
|-----------------------------|----------------------------|
|-----------------------------|----------------------------|
|-----------------------------|----------------------------|
|-0-0-0S3-3-3-3S2-2-2-2S1-1-1-|-0-0-0S3-3-3-3S6-6-6-6-6-6\-|


  E E S S S S S S S S S S S S   E. S +E  E +S  S +E  S S E
|-----------------------------|----------------------------|
|-----------------------------|----------------------------|
|-----------------------------|----------3-(3)-2-(2)---2---|
|-0-0-0S3-3-3-3S2-2-2-2S1-1-1-|-1--4-(4)-------------4---4-|


  E E S S S S S S S S S S S S   E E S S S S S S S S S S E
|-----------------------------|----------------------------|
|-----------------------------|----------------------------|
|-----------------------------|----------------------------|
|-0-0-0S3-3-3-3S2-2-2-2S1-1-1-|-0-0-0S3-3-3-3S6-6-6-6-6-6\-|


  E E S S S S S S S S S S S S   E. S +E  E +S  E. Q
|-----------------------------|------------------------||
|-----------------------------|------------------------||
|-----------------------------|------------------------||
|-0-0-0S3-3-3-3S2-2-2-2S1-1-1-|-1--4-(4)-1-(1)-4--1----||


 Chorus Variation
  S S S S S S S S S S S S S S S S   S S S S S S S S S S T T S T T S T T S
|---------------------------------|---------------------------------------|
|---------------------------------|---------------------------------------|
|---------------------------------|---------------------------------------|
|-0-0-0-0-0---0-0-0-0-0---0-0-0---|-0-0-0-0-0---0-0-0-0-0-0-0-0-0-0-0-0-0-|


  S S S S S S S S S S S S S S S S   E. S +E  E +S  S +E  S S E
|---------------------------------|-----------------------------|
|---------------------------------|-----------------------------|
|---------------------------------|----------3-(3)-2-(2)---2----|
|-0-0-0-0-0---0-0-0-0-0---0-0-0---|-1--4-(4)-------------4---4--|


  S S S S S S S S S S S S S S S S   S S S S S S S S S S T T S T T S T T S
|---------------------------------|---------------------------------------|
|---------------------------------|---------------------------------------|
|---------------------------------|---------------------------------------|
|-0-0-0-0-0---0-0-0-0-0---0-0-0---|-0-0-0-0-0---0-0-0-0-0-0-0-0-0-0-0-0-0-|


  S S S S S S S S S S S S S S S S   E. S +E  E +S  E. Q
|---------------------------------|------------------------||
|---------------------------------|------------------------||
|---------------------------------|------------------------||
|-0-0-0-0-0---0-0-0-0-0---0-0-0---|-1--4-(4)-1-(1)-4--1----||


 Outro
  E E S S S S S S S S S S S S   E E S S S S S S S S S S E
|-----------------------------|----------------------------|
|-----------------------------|----------------------------|
|-----------------------------|----------------------------|
|-0-0-0S3-3-3-3S2-2-2-2S1-1-1-|-0-0-0S3-3-3-3S6-6-6-6-6-6\-|


  E E S S S S S S S S S S S S   E. S +E  E +S  S +E  S S E
|-----------------------------|----------------------------|
|-----------------------------|----------------------------|
|-----------------------------|----------3-(3)-2-(2)---2---|
|-0-0-0S3-3-3-3S2-2-2-2S1-1-1-|-1--4-(4)-------------4---4-|


  E E S S S S S S S S S S S S   E E S S S S S S S S S S E
|-----------------------------|----------------------------|
|-----------------------------|----------------------------|
|-----------------------------|----------------------------|
|-0-0-0S3-3-3-3S2-2-2-2S1-1-1-|-0-0-0S3-3-3-3S6-6-6-6-6-6\-|


  E E S S S S S S S S S S S S   E. S +E  E +S  E. Q
|-----------------------------|------------------------|
|-----------------------------|------------------------|
|-----------------------------|------------------------|
|-0-0-0S3-3-3-3S2-2-2-2S1-1-1-|-1--4-(4)-1-(1)-4--1----|


  E E S S S S S S S S S S S S   E E S S S S S S S S S S E    W
|-----------------------------|----------------------------|------*|
|-----------------------------|----------------------------|------*|
|-----------------------------|----------------------------|------*|
|-0-0-0S3-3-3-3S2-2-2-2S1-1-1-|-0-0-0S3-3-3-3S6-6-6-6-6-6\-|------*|



Duration Legend
---------------
W - whole; H - half; Q - quarter; E - 8th; S - 16th; T - 32nd; X - 64th; a - acciaccatura
+ - note tied to previous; . - note dotted; .. - note double dotted
Uncapitalized letters represent notes that are staccato (1/2 duration)
Irregular groupings are notated above the duration line
Duration letters will always appear directly above the note/fret number it represents the
duration for.  Duration letters with no fret number below them represent rests.  Multi-
bar rests are notated in the form Wxn, where n is the number of bars to rest for.  Low
melody durations appear below the staff

Tablature Legend
----------------
 h   - hammer-on
 p   - pull-off
 b   - bend
 pb  - pre-bend
 r   - bend release (if no number after the r, then release immediately)
 /\  - slide into or out of (from/to "nowhere")
 s   - legato slide
 S   - shift slide
 - natural harmonic
[n]  - artificial harmonic
n(n) - tapped harmonic
 ~   - vibrato
 tr  - trill
 T   - tap
 TP  - trem. picking
 PM  - palm muting
\n/  - tremolo bar dip; n = amount to dip
 \n  - tremolo bar down
 n/  - tremolo bar up
/n\  - tremolo bar inverted dip
 =   - hold bend; also acts as connecting device for hammers/pulls
 <> - volume swell (louder/softer)
 x   - on rhythm slash represents muted slash
 o   - on rhythm slash represents single note slash

Misc Legend
-----------
 |  - bar
||  - double bar
||o - repeat start
o|| - repeat end
*|  - double bar (ending)
 :  - bar (freetime)
 $  - Segno
 &  - Coda
Tempo markers -  = BPM(8/16=s8/s16), where s8 = swing 8ths, s16 = swing 16ths
"            
Submit corrections

comments powered by Disqus
↑ Back to top | Haunted Bass for Doa. Lyrics for acoustic guitar and electric guitar. 1 Tablatures and chords are parodies/interpretations of the original songs. You may use it for private study, scholarship, research or language learning purposes only