» » »

D.O.A Tabs (ver.1)

Artists:  A B C D E F G H I J K L M N O P Q R S T U V W X Y Z # 

D.O.A Tabs (ver.1)

Haunted
Rating:
0/5 (0 votes)

Hard to play? Try these video lessons and learn fast.
                
As recorded by The Haunted
(From the 2003 Album ONE KILL WONDER)

        

Words by Anders Björler, Marco Aro Music by Anders Björler, Jensen

Gtr I (D G C F A D) - 'Distortion Left'
Gtr II (D G C F A D) - 'Distortion Right'
Gtr III (D G C F A D) - 'Solo Guitar'
Gtr IV (D G C F A D) - 'Elec. Muted'
Gtr V (D G C F A D) - 'Dist. Fill'

 Intro          Verse
  Q=110
  N.C.           N.C.
 4/4
  Gtrs I, II
                 PM--------------------------|
  Wx3            S S S S S S S S S S S S S S S S
|------------||----------------------------------|
|------------||o---------------------------------|
|------------||----------------------------------|
|------------||----------------------------------|
|------------||o---------------------------------|
|------------||--0-0-0-0-0---0-0-0-0-0---0-0-0---|


  PM-------------------------------------
  S S S S S S S S S S T T S T T S T T S
|---------------------------------------|
|---------------------------------------|
|---------------------------------------|
|---------------------------------------|
|---------------------------------------|
|-0-0-0-0-0---0-0-0-0-0-0-0-0-0-0-0-0-0-|


 -----------------------------------------------------------|
  S S S S S S S S S S S S S S S S   S S S S S S S S S S T T S S S S S
|---------------------------------|------------------------------------||
|---------------------------------|-----------------------------------o||
|---------------------------------|------------------------------------||
|---------------------------------|---------------------------------5--||
|---------------------------------|---------------------------5h7h8---o||
|-0-0-0-0-0---0-0-0-0-0---0-0-0---|-0-0-0-0-0---0-0-0-0-0-0-0----------||


   Pre-Chorus
    N.C.
    PM----|         PM----|
    S S S S S S S S S S S S S T T S S
||------------------------------------|
||o-----------------------------------|
||------------------------------------|
||----------------5---------------5---|
||o---------5h7h8-----------5h7h8---8-|
||--0-0-0-0---------0-0-0-0-----------|


                                      G5
                                     2/4
  PM----|         PM  PM  PM
  S S S S S S S S S S S S S S S S     S S E S S E
|----------------------------------||--------------||
|---------------------------------o||--------------||
|----------------------------------||--------------||
|---------------5------------------||-5-5---5-5----||
|---------5h7h8-----8---1---------o||-5-5---5-5----||
|-0-0-0-0---------0---0---0-3-2-1--||-3-3---3-3----||


   Chorus
    $
    E5  N.C.                      E5  N.C.
   4/4
    Gtr I
    E E S S S S S S S S S S S S   E E S S S S S S S S S  S  S  S
||------------------------------|---------------------------------|
||o-----------------------------|---------------------------------|
||------------------------------|---------------------------------|
||--2-2-2S5-5-5-5S4-4-4-4S3-3-3-|-2-2-2S5-5-5-5S4-4-4-4S=8--8--8--|
||o-2-2-------------------------|-2-2-----------------------------|
||--0-0-0S3-3-3-3S2-2-2-2S1-1-1-|-0-0-0S3-3-3-3S2-2-2-2S=6--6--6--|
|
|   Gtr II
|   E E S S S S S S S S S S S S   E E S S S S S S S S S  S  E
||------------------------------|---------------------------------|
||o-----------------------------|---------------------------------|
||------------------------------|---------------------------------|
||--2-2-2S5-5-5-5S4-4-4-4S3-3-3-|-2-2-2S9-9-9-9S8-8-8-8S12-12\----|
||o-2-2-------------------------|-2-2-----------------------------|
||--0-0-0S3-3-3-3S2-2-2-2S1-1-1-|-0-0-0S7-7-7-7S6-6-6-6S10-10\----|


  E5  N.C.
  E E S S S S S S S S S S E
|-----------------------------|
|-----------------------------|
|-----------------------------|
|-2-2-2S5-5-5-5S4-4-4-4S3-3---|
|-2-2-------------------------|
|-0-0-0S3-3-3-3S2-2-2-2S1-1---|
|
|                           PM
| E E S S S S S S S S S S S S
|-----------------------------|
|-----------------------------|
|-----------------------------|
|-2-2-2S5-5-5-5S4-4-4-4S3-3---|
|-2-2-------------------------|
|-0-0-0S3-3-3-3S2-2-2-2S1-1-0-|


 1.                               2.
                                                   To Coda
  F5 N.C.                          F5 N.C.  F5    N.C.  F5
  E. S +E   E  +S  S +E  S S E     E. S +E  E +S  S +E  Q
|-------------------------------||-------------------------||
|------------------------------o||-------------------------||
|-------------------------------||-------------------------||
|-3--6-(6)-10-(10)-9-(9)-6s9-6--||-3--6-(6)-3-(3)-6-(6)-3--||
|-3----------------------------o||-3--------3-(3)-------3--||
|-1--4-(4)--8--(8)-7-(7)-4s7-4--||-1--4-(4)-1-(1)-4-(4)-1--||
|
| E. S +E   E  +S  S +E  S S E     E. S +E  E +S  S +E  Q
|-------------------------------||-------------------------||
|------------------------------o||-------------------------||
|-------------------------------||-------------------------||
|-3--6-(6)-10-(10)-9-(9)-6s9-6--||-3--6-(6)-3-(3)-6-(6)-3--||
|-3----------------------------o||-3--------3-(3)-------3--||
|-1--4-(4)--8--(8)-7-(7)-4s7-4--||-1--4-(4)-1-(1)-4-(4)-1--||


 Guitar Solo
  N.C.
  Gtr III
                                      T T  T
   E    +E        +E    S S S  S S S  S S  S S
|----------------------------------------------|
|-12---(12)b13---(12)--------------------------|
|--9----(9)b10----(9)---9-9-9-10-9-9-17p9-16p9-|
|----------------------------------------------|
|----------------------------------------------|
|----------------------------------------------|
|
| Gtrs I, II
|  PM-------------------|      PM------------|
|  S S   S     S   S  S S S S  S S S  S S  S S
|----------------------------------------------|
|----------------------------------------------|
|----------------------------------------------|
|----------------------------------------------|
|----------------------------------------------|
|--0-0---0-----0---0--0-0-0----0-0-0--0-1--1-1-|


   T      T    T                        PM|   ~~~
                             |---3---|
   S   S  S S  S S  S  T  T  S  S    S  S  S  E.        +S
|-------------------------------------------------------------|
|---------------------------15--------------------------------|
|-14p==9-16p9-17p9-16-17p16----17p==16-14---------------------|
|-----------------------------------------17-16--------(16)/--|
|-------------------------------------------------------------|
|-------------------------------------------------------------|
|
|         PM-------|              PM-------------------|
|  T T S  S S  S S  S  S     S    S     S  S  T  T S S   S
|-------------------------------------------------------------|
|-------------------------------------------------------------|
|-------------------------------------------------------------|
|-------------------------------------------------------------|
|-------------------------------------------------------------|
|--1-1-1--0-0--0-0--0--0----------0-----0--0--0--0-3-3---3----|


   S   S S  S S S  S S  S S  S S  Q
|-12---0-0-10-0-0-13-0-12-0-17-0-16tr17---------|
|-----------------------------------------------|
|-----------------------------------------------|
|-----------------------------------------------|
|-----------------------------------------------|
|-----------------------------------------------|
|
| Gtr I
|        PM-------|       PM------------------|
|  T T S S  S S S  S S  S S  S S  T     T S S S
|-----------------------------------------------|
|-----------------------------------------------|
|-----------------------------------------------|
|-----------------------------------------------|
|-----------------------------------------------|
|--3-3-3-0--0-0-0--0-0----0--0-0--0-----0-1-1-1-|
|
| Gtr II
|        PM-------|       PM------------------|
|  T T S S  S S S  S S  S S  S S  T     T S S S
|-----------------------------------------------|
|-----------------------------------------------|
|-----------------------------------------------|
|-----------------------------------------------|
|-----------------------------------------------|
|--3-3-3-0--0-0-0--0-0----0--0-0--0-----0-1-1-1-|


                  PM   PM-------| ~
   E.      S S S  S S  S   S  S S Q
|-----------------------------------------||
|-----------------------------------------||
|-----------------------------------------||
|------------9-8----8---------------------||
|-13s======7-----10---10---9--7-6-7-------||
|-----------------------------------------||
|
|        PM-----------|           PM
|  T T S S S S S  S S  S   E.     S   E.
|-----------------------------------------||
|-----------------------------------------||
|-----------------------------------------||
|-----------------------------------------||
|------------------------[10]-------[10]--||
|--1-1-1-0-0-0-0--0-0--0----------0-------||
|
|        PM-----------|           PM
|  T T S S S S S  S S  S   E.     S   E.
|-----------------------------------------||
|-----------------------------------------||
|-----------------------------------------||
|-----------------------------------------||
|-------------------------[7]--------[7]--||
|--1-1-1-0-0-0-0--0-0--0----------0-------||


 Verse
  N.C.
                       >
    H                 +H
|---------------------------------------|
|---------------------------------------|
|-([9])---------------(9)---------------|
|---------------------------------------|
|---------------------------------------|
|---------------------------------------|
|
| Gtrs I, II
|   PM------------------------------|
|   S   S S S S S S S  S  S S S S S S S
|---------------------------------------|
|---------------------------------------|
|---------------------------------------|
|---------------------------------------|
|---------------------------------------|
|---0---0-0-0-0---0-0--0--0-0---0-0-0---|


    W
||-----------------------------------------|
||o----------------------------------------|
||-----------------------------------------|
||-----------------------------------------|
||o----------------------------------------|
||-----------------------------------------|
|
|   PM----------------------------------|
|   S S S S S S S S S S T T S T T S T T S
||-----------------------------------------|
||o----------------------------------------|
||-----------------------------------------|
||-----------------------------------------|
||o----------------------------------------|
||--0-0-0-0-0---0-0-0-0-0-0-0-0-0-0-0-0-0--|


  Gtrs I, II
  PM--------------------------------------------------------|
  S S S S S S S S S S S S S S S S   S S S S S S S S S S T T S S S S S
|---------------------------------|-----------------------------------|
|---------------------------------|-----------------------------------|
|---------------------------------|-----------------------------------|
|---------------------------------|---------------------------------5-|
|---------------------------------|---------------------------5h7h8---|
|-0-0-0-0-0---0-0-0-0-0---0-0-0---|-0-0-0-0-0---0-0-0-0-0-0-0---------|


 1.
  PM--------------------------|
  S S S S S S S S S S S S S S S S
|-------------------------------------||
|------------------------------------o||
|-------------------------------------||
|-------------------------------------||
|------------------------------------o||
|-0-0-0-0-0---0-0-0-0-0---0-0-0-------||


   Pre-Chorus
    2.
    N.C.
    S S S S S S S S S S S S S T T S S
||------------------------------------|
||o-----------------------------------|
||------------------------------------|
||----------------5---------------5---|
||o---------5h7h8-----------5h7h8---8-|
||--0-0-0-0---------0-0-0-0-----------|


                                      D.S. al Coda
                                      G5
                                     2/4
  S S S S S S S S S S S S S S S S     S S E S S E
|----------------------------------||--------------||
|---------------------------------o||--------------||
|----------------------------------||--------------||
|---------------5------------------||-5-5---5-5----||
|---------5h7h8-----8---1---------o||-5-5---5-5----||
|-0-0-0-0---------0---0---0-3-2-1--||-3-3---3-3----||


 Interlude
  &
  N.C.
 4/4
  Gtr V
  E E E E E E E E   E E E E E E E E   E E E E E E E E   E E E E E E E E
|-----------------|-----------------|-----------------|-----------------|
|-----------------|---------------0-|-----------------|---------------0-|
|-----0-------0---|-----0-------0---|-----0-------0---|-----0-------0---|
|---9---9---8---8-|---5---5---4-----|---9---9---8---8-|---5---5---4-----|
|-----------------|-----------------|-----------------|-----------------|
|-7-------6-------|-3-------2-------|-7-------6-------|-3-------2-------|
|
| Gtr IV
| H       H         H       H         H       H         H       H
|-----------------|-----------------|-----------------|-----------------|
|-----------------|-----------------|-----------------|-----------------|
|-----------------|-----------------|-----------------|-----------------|
|-----------------|-----------------|-----------------|-----------------|
|-----------------|-----------------|-----------------|-----------------|
|-7-------6-------|-3-------2-------|-7-------6-------|-3-------2-------|


  E E  E  E E E  E  E    E E   E  E E E  E  E
|---------------------|-----------------------|
|---------------------|-----------------------|
|------0---------0----|--------0---------0----|
|---9-----9---8-----8-|----5------5---4-----4-|
|---------------------|-----------------------|
|-7---------6---------|--3----------2---------|
|
| H         H            H          H
|---------------------|-----------------------|
|---------------------|-----------------------|
|---------------------|-----------------------|
|---------------------|-----------------------|
|---------------------|-----------------------|
|-7---------6---------|-10----------9---------|
|
| Gtr III
| <         <            <          <
| Q   +Q    Q   +Q       Q    +Q    Q   +Q
|---------------------|-----------------------|
|---------------------|-----------------------|
|---------------------|-----------------------|
|-9---(9)---8---(8)---|-----------------------|
|---------------------|-10---(10)---9---(9)---|
|---------------------|-----------------------|


  E E  E  E E E  E  E    E E   E  E  E E   E  E
|---------------------|--------------------------||
|---------------------|--------------------------||
|------0---------0----|--------0-----------0-----||
|---9-----9---8-----8-|----5------5----4------4--||
|---------------------|--------------------------||
|-7---------6---------|--3-----------2-----------||
|
| H         H            H           H
|---------------------|--------------------------||
|---------------------|--------------------------||
|---------------------|--------------------------||
|---------------------|--------------------------||
|---------------------|--------------------------||
|-7---------6---------|-10-----------9-----------||
|
| <         <            <           <
| Q   +Q    Q   +Q       Q    +Q     Q    +Q
|---------------------|--------------------------||
|---------------------|--------------------------||
|-7---(7)---9---(9)---|--------------------------||
|-9---(9)---8---(8)---|--9----(9)---11---(11)----||
|---------------------|-10---(10)----9----(9)----||
|---------------------|--------------------------||


 Guitar Solo
  N.C.
  Gtr III
  ~~             PM--------------------|         ~~~~~~
  Q.      +E     S S S S S S S S   S S S S S S S S +Q.   +E
|--------------------------------|----------------------------|
|--------------------------------|----------------------------|
|--------------------------------|----------------------------|
|--------------------------------|----------------------------|
|-9-------(9)\-------------------|-4-2-2-5-4-4-2--------------|
|----------------0-2-3-0-2-3-5-3-|---------------6-(6)---(6)\-|
|
| Gtrs I, II
|                                              PM|
| S S E E  S   S S S E   S S E     S S E   E   S S  H
|--------------------------------|----------------------------|
|--------------------------------|----------------------------|
|-------5------------------------|---------5------------------|
|-------4------------------------|---------4------------------|
|--------------------------------|----------------------------|
|-0h2-2----2---2-0h2-2---2h3-3---|-0h2-2-------2-2------------|


                        ~~~~~~~    TP   TP   TP   TP TP TP   TP ~~~~~~~
   S  S  S  S  S  S  S  S  +Q      E    E    E    E  E  E    E  E  +Q
|-------------------14--------------------|------------------------------|
|----------------14----14-(14)----12---11-|-12---14-15-14---12-11-(11)---|
|-------------14--------------------------|------------------------------|
|----------16-----------------------------|------------------------------|
|----13-16--------------------------------|------------------------------|
|-14--------------------------------------|------------------------------|
|
|                                                       PM|
|  S  S  E     E     S  S   S S E  S S  E    S S  E  E  S S  H
|-----------------------------------------|------------------------------|
|-----------------------------------------|------------------------------|
|--------------5--------------------------|----------5-------------------|
|--------------4--------------------------|----------4-------------------|
|-----------------------------------------|------------------------------|
|--0h=2--2-----------2--2---0h2-2--2h3--3-|--0h2--2-----2-2--------------|


  E    E      +Q        H                 H               H
|--------------------------------------|--------------------------|
|-----12-----(12)------11--------------|-12--------------14-------|
|-----14b16==(14)r-----13b15-----------|-14b16-----------16b18----|
|--------------------------------------|--------------------------|
|--------------------------------------|--------------------------|
|--------------------------------------|--------------------------|
|
|                                                    PM|
| S S  E       E   S S  S    S E S S E    S    S E E S S  H
|--------------------------------------|--------------------------|
|--------------------------------------|--------------------------|
|--------------5-----------------------|-----------5--------------|
|--------------4-----------------------|-----------4--------------|
|--------------------------------------|--------------------------|
|-0h2--2-----------2-2--0h===2-2-2h3-3-|--0h===2-2---2-2----------|


  E    S  S  +E  S  S  +E    S  S  +E    S  S    +E   S  S  +E  E  H
|---------------------------------------------|--------------------------||
|---------------------------------------------|--------------------------||
|-----11-12-(12)-9-11-(11)--11-12-(12)---9-11-|-(11)--7--9--(9)-7--6-----||
|---------------------------12-14-(14)--11-12-|-(12)--9-11-(11)-9--8-----||
|---------------------------------------------|--------------------------||
|---------------------------------------------|--------------------------||
|
|                                                               ~~~~~~
| S S  E      E  S  S   S S  E      S S  E        S S E      E  E +H
|---------------------------------------------|--------------------------||
|---------------------------------------------|--------------------------||
|-------------5-------------------------------|--------------5-----------||
|-------------4-------------------------------|--------------4-----------||
|---------------------------------------------|--------------------------||
|-0h2--2---------2--2---0h2--2------2h3--3----|---0h2-2---------2-(2)----||


  N.C.              G5       F#5       N.C.              G5       F#5
  ~~~~~~~~~~~~~~~~~~~~~~~~~~~~~~~~~~~~~~~~~~~~~~~~~~~~~~~~~~~~~~~~~~
  H       H          H       H         H       H          H       H
|-----------------|------------------|-----------------|-------------------|
|-----------------|------------------|-----------------|-------------------|
|-7-------6-------|------------------|-7-------6-------|-------------------|
|-9-------8-------|--9-------8-------|-9-------8-------|--9-------8--------|
|-----------------|-10-------9-------|-----------------|-10-------9--------|
|-----------------|------------------|-----------------|-------------------|
|
| E E E E E E E E    E E E E E E E E   E E E E E E E E    E E E E E E E E
|-----------------|------------------|-----------------|-------------------|
|-----------------|----------------0-|-----------------|----------------0--|
|-----0-------0---|------0-------0---|-----0-------0---|------0-------0----|
|---9---9---8---8-|----5---5---4-----|---9---9---8---8-|----5---5---4------|
|-----------------|--5-------4-------|-----------------|--5-------4--------|
|-7-------6-------|--3-------2-------|-7-------6-------|--3-------2--------|


  N.C.              G5       F#5       N.C.
  ~~~~~~~~~~~~~~~~~~~~~~~~~~~~~~~~~~~~~~~~~~~~~~~~~~~~~~~~
  H       H          H       H          H        H
|-----------------|------------------|-------------------|
|-----------------|------------------|-12-------11-------|
|-7-------6-------|--7-------9-------|-11-------15-------|
|-9-------8-------|--9-------8-------|--9--------8-------|
|-----------------|-10-------9-------|-------------------|
|-----------------|------------------|-------------------|
|
| E E E E E E E E    E E E E E E E E    E E E E  E E E E
|-----------------|------------------|-------------------|
|-----------------|----------------0-|-------------------|
|-----0-------0---|------0-------0---|------0--------0---|
|---9---9---8---8-|----5---5---4-----|----9---9----8---8-|
|-----------------|--5-------4-------|-------------------|
|-7-------6-------|--3-------2-------|--7--------6-------|


  G5       F#5        F5
 ~~~~~~~~~~~~~
   H        H         Q        Q         +E  +E  +Q
|-------------------|---------------------------------------||
|-12-------14-------|-6--------6---------(6)-(6)-(6)--------||
|-12-------11-------|-8b10-----8b10======(8)-(8)r(8)--------||
|-------------------|---------------------------------------||
|-10--------9-------|---------------------------------------||
|-------------------|---------------------------------------||
|
|  E E E E  E E E E   S    S E S     S E  Q       S  S E
|-------------------|---------------------------------------||
|-----------------0-|---------------------------------------||
|------0--------0---|---------------------------------------||
|----5---5----4-----|-3----3---3-----3------------3--3------||
|--5--------4-------|-3----3---3-----3------------3--3------||
|--3--------2-------|-1----1---1-----1------------1--1------||


 Chorus
  E5     N.C.                      E5    N.C.
  >
  W                                +W
|--------------------------------|----------------------------------|
|-5------------------------------|-(5)------------------------------|
|-7b9============================|=(7)------------------------------|
|--------------------------------|----------------------------------|
|--------------------------------|----------------------------------|
|--------------------------------|----------------------------------|
|
| Gtr I
| E    E S S S S S S S S S S S S    E  E S S S S S S S S S  S  S  S
|--------------------------------|----------------------------------|
|--------------------------------|----------------------------------|
|--------------------------------|----------------------------------|
|-2----2-2S5-5-5-5S4-4-4-4S3-3-3-|--2--2-2S5-5-5-5S4-4-4-4S=8--8--8-|
|-2----2-------------------------|--2--2----------------------------|
|-0----0-0S3-3-3-3S2-2-2-2S1-1-1-|--0--0-0S3-3-3-3S2-2-2-2S=6--6--6-|
|
| Gtr II
| E    E S S S S S S S S S S S S    E  E S S S S S S S S S  S  E
|--------------------------------|----------------------------------|
|--------------------------------|----------------------------------|
|--------------------------------|----------------------------------|
|-2----2-2S5-5-5-5S4-4-4-4S3-3-3-|--2--2-2S9-9-9-9S8-8-8-8S12-12\---|
|-2----2-------------------------|--2--2----------------------------|
|-0----0-0S3-3-3-3S2-2-2-2S1-1-1-|--0--0-0S7-7-7-7S6-6-6-6S10-10\---|


  E5    N.C.                      F5    N.C.
  +W                              +W
|-------------------------------|----------------------------------|
|-------------------------------|----------------------------------|
|-(7)---------------------------|-(7)------------------------------|
|-------------------------------|----------------------------------|
|-------------------------------|----------------------------------|
|-------------------------------|----------------------------------|
|
|  E  E S S S S S S S S S S E      E. S +E   E  +S  S +E  S S E
|-------------------------------|----------------------------------|
|-------------------------------|----------------------------------|
|-------------------------------|----------------------------------|
|--2--2-2S5-5-5-5S4-4-4-4S3-3---|--3--6-(6)-10-(10)-9-(9)-6s9-6----|
|--2--2-------------------------|--3-------------------------------|
|--0--0-0S3-3-3-3S2-2-2-2S1-1---|--1--4-(4)--8--(8)-7-(7)-4s7-4----|
|
|                             PM
|  E  E S S S S S S S S S S S S    E. S +E   E  +S  S +E  S S E
|-------------------------------|----------------------------------|
|-------------------------------|----------------------------------|
|-------------------------------|----------------------------------|
|--2--2-2S5-5-5-5S4-4-4-4S3-3---|--3--6-(6)-10-(10)-9-(9)-6s9-6----|
|--2--2-------------------------|--3-------------------------------|
|--0--0-0S3-3-3-3S2-2-2-2S1-1-0-|--1--4-(4)--8--(8)-7-(7)-4s7-4----|


  E5    N.C.                      E5    N.C.
  +W                              +W
|-------------------------------|----------------------------------|
|-------------------------------|----------------------------------|
|-(7)---------------------------|-(7)------------------------------|
|-------------------------------|----------------------------------|
|-------------------------------|----------------------------------|
|-------------------------------|----------------------------------|
|
|  E  E S S S S S S S S S S S S    E  E S S S S S S S S S  S  S  S
|-------------------------------|----------------------------------|
|-------------------------------|----------------------------------|
|-------------------------------|----------------------------------|
|--2--2-2S5-5-5-5S4-4-4-4S3-3-3-|--2--2-2S5-5-5-5S4-4-4-4S=8--8--8-|
|--2--2-------------------------|--2--2----------------------------|
|--0--0-0S3-3-3-3S2-2-2-2S1-1-1-|--0--0-0S3-3-3-3S2-2-2-2S=6--6--6-|
|
|  E  E S S S S S S S S S S S S    E  E S S S S S S S S S  S  E
|-------------------------------|----------------------------------|
|-------------------------------|----------------------------------|
|-------------------------------|----------------------------------|
|--2--2-2S5-5-5-5S4-4-4-4S3-3-3-|--2--2-2S9-9-9-9S8-8-8-8S12-12\---|
|--2--2-------------------------|--2--2----------------------------|
|--0--0-0S3-3-3-3S2-2-2-2S1-1-1-|--0--0-0S7-7-7-7S6-6-6-6S10-10\---|


  E5    N.C.                      F5   N.C.  F5    N.C.  F5
  +W                              +W
|-------------------------------|---------------------------||
|-------------------------------|---------------------------||
|-(7)---------------------------|-(7)r----------------------||
|-------------------------------|---------------------------||
|-------------------------------|---------------------------||
|-------------------------------|---------------------------||
|
|  E  E S S S S S S S S S S E      E.  S +E  E +S  S +E  Q
|-------------------------------|---------------------------||
|-------------------------------|---------------------------||
|-------------------------------|---------------------------||
|--2--2-2S5-5-5-5S4-4-4-4S3-3---|--3---6-(6)-3-(3)-6-(6)-3--||
|--2--2-------------------------|--3---------3-(3)-------3--||
|--0--0-0S3-3-3-3S2-2-2-2S1-1---|--1---4-(4)-1-(1)-4-(4)-1--||
|
|                             PM
|  E  E S S S S S S S S S S S S    E.  S +E  E +S  S +E  Q
|-------------------------------|---------------------------||
|-------------------------------|---------------------------||
|-------------------------------|---------------------------||
|--2--2-2S5-5-5-5S4-4-4-4S3-3---|--3---6-(6)-3-(3)-6-(6)-3--||
|--2--2-------------------------|--3---------3-(3)-------3--||
|--0--0-0S3-3-3-3S2-2-2-2S1-1-0-|--1---4-(4)-1-(1)-4-(4)-1--||


 Chorus Variation
  E5      N.C.                      E5      N.C.
  Gtr I
  PM--------------------------|     PM----------------------------------------
  S S S S S S S S S S S S S S S S   S S S S S S S S S S T T S T T  S  T  T S
|---------------------------------|------------------------------------------|
|---------------------------------|------------------------------------------|
|---------------------------------|------------------------------------------|
|---------------------------------|------------------------------------------|
|---------------------------------|------------------------------------------|
|-0-0-0-0-0---0-0-0-0-0---0-0-0---|-0-0-0-0-0---0-0-0-0-0-0-0-0-0--0--0--0-0-|
|
| Gtr II
| E   E   S S S S S S S S S S S S   E   E   S S S S S S S   S S    S  E
|---------------------------------|------------------------------------------|
|---------------------------------|------------------------------------------|
|---------------------------------|------------------------------------------|
|-2---2---2S5-5-5-5S4-4-4-4S3-3-3-|-2---2---2S9-9-9-9S8-8---8-8S==12-12\-----|
|-2---2---------------------------|-2---2------------------------------------|
|-0---0---0S3-3-3-3S2-2-2-2S1-1-1-|-0---0---0S7-7-7-7S6-6---6-6S==10-10\-----|


  E5      N.C.                      F5   N.C.
 -------------------------------|
  S S S S S S S S S S S S S S S S   E. S +E   E  +S  S +E  S S E
|---------------------------------|-------------------------------|
|---------------------------------|-------------------------------|
|---------------------------------|-------------------------------|
|---------------------------------|-3--6-(6)-10-(10)-9-(9)-6s9-6--|
|---------------------------------|-3-----------------------------|
|-0-0-0-0-0---0-0-0-0-0---0-0-0---|-1--4-(4)--8--(8)-7-(7)-4s7-4--|
|
|                               PM
| E   E   S S S S S S S S S S S S   E. S +E   E  +S  S +E  S S E
|---------------------------------|-------------------------------|
|---------------------------------|-------------------------------|
|---------------------------------|-------------------------------|
|-2---2---2S5-5-5-5S4-4-4-4S3-3---|-3--6-(6)-10-(10)-9-(9)-6s9-6--|
|-2---2---------------------------|-3-----------------------------|
|-0---0---0S3-3-3-3S2-2-2-2S1-1-0-|-1--4-(4)--8--(8)-7-(7)-4s7-4--|


  E5      N.C.                      E5      N.C.
  PM--------------------------|     PM----------------------------------------
  S S S S S S S S S S S S S S S S   S S S S S S S S S S T T S T T  S  T  T S
|---------------------------------|------------------------------------------|
|---------------------------------|------------------------------------------|
|---------------------------------|------------------------------------------|
|---------------------------------|------------------------------------------|
|---------------------------------|------------------------------------------|
|-0-0-0-0-0---0-0-0-0-0---0-0-0---|-0-0-0-0-0---0-0-0-0-0-0-0-0-0--0--0--0-0-|
|
| E   E   S S S S S S S S S S S S   E   E   S S S S S S S   S S    S  E
|---------------------------------|------------------------------------------|
|---------------------------------|------------------------------------------|
|---------------------------------|------------------------------------------|
|-2---2---2S5-5-5-5S4-4-4-4S3-3-3-|-2---2---2S9-9-9-9S8-8---8-8S==12-12\-----|
|-2---2---------------------------|-2---2------------------------------------|
|-0---0---0S3-3-3-3S2-2-2-2S1-1-1-|-0---0---0S7-7-7-7S6-6---6-6S==10-10\-----|


  E5      N.C.                      F5 N.C.  F5    N.C.  F5
 -------------------------------|
  S S S S S S S S S S S S S S S S   E. S +E  E +S  S +E  Q
|---------------------------------|---------------------------||
|---------------------------------|---------------------------||
|---------------------------------|---------------------------||
|---------------------------------|-3--6-(6)-3-(3)-6-(6)-3----||
|---------------------------------|-3--------3-(3)-------3----||
|-0-0-0-0-0---0-0-0-0-0---0-0-0---|-1--4-(4)-1-(1)-4-(4)-1----||
|
|                               PM
| E   E   S S S S S S S S S S S S   E. S +E  E +S  S +E  Q
|---------------------------------|---------------------------||
|---------------------------------|---------------------------||
|---------------------------------|---------------------------||
|-2---2---2S5-5-5-5S4-4-4-4S3-3---|-3--6-(6)-3-(3)-6-(6)-3----||
|-2---2---------------------------|-3--------3-(3)-------3----||
|-0---0---0S3-3-3-3S2-2-2-2S1-1-0-|-1--4-(4)-1-(1)-4-(4)-1----||


 Outro
  E5  N.C.                      E5  N.C.
  E E S S S S S S S S S S S S   E E S S S S S S S S S  S  S  S
|-----------------------------|--------------------------------|
|-----------------------------|--------------------------------|
|-----------------------------|--------------------------------|
|-2-2-2S5-5-5-5S4-4-4-4S3-3-3-|-2-2-2S5-5-5-5S4-4-4-4S=8--8--8-|
|-2-2-------------------------|-2-2----------------------------|
|-0-0-0S3-3-3-3S2-2-2-2S1-1-1-|-0-0-0S3-3-3-3S2-2-2-2S=6--6--6-|
|
| E E S S S S S S S S S S S S   E E S S S S S S S S S  S  E
|-----------------------------|--------------------------------|
|-----------------------------|--------------------------------|
|-----------------------------|--------------------------------|
|-2-2-2S5-5-5-5S4-4-4-4S3-3-3-|-2-2-2S9-9-9-9S8-8-8-8S12-12\---|
|-2-2-------------------------|-2-2----------------------------|
|-0-0-0S3-3-3-3S2-2-2-2S1-1-1-|-0-0-0S7-7-7-7S6-6-6-6S10-10\---|


  E5  N.C.                      F5   N.C.
  E E S S S S S S S S S S E     E. S +E   E  +S  S +E  S S E
|-----------------------------|---------------------------------|
|-----------------------------|---------------------------------|
|-----------------------------|---------------------------------|
|-2-2-2S5-5-5-5S4-4-4-4S3-3---|-3--6-(6)-10-(10)-9-(9)-6s9-6----|
|-2-2-------------------------|-3-------------------------------|
|-0-0-0S3-3-3-3S2-2-2-2S1-1---|-1--4-(4)--8--(8)-7-(7)-4s7-4----|
|
|                           PM
| E E S S S S S S S S S S S S   E. S +E   E  +S  S +E  S S E
|-----------------------------|---------------------------------|
|-----------------------------|---------------------------------|
|-----------------------------|---------------------------------|
|-2-2-2S5-5-5-5S4-4-4-4S3-3---|-3--6-(6)-10-(10)-9-(9)-6s9-6----|
|-2-2-------------------------|-3-------------------------------|
|-0-0-0S3-3-3-3S2-2-2-2S1-1-0-|-1--4-(4)--8--(8)-7-(7)-4s7-4----|


  E5  N.C.                      E5  N.C.
  E E S S S S S S S S S S S S   E E S S S S S S S S S  S  S  S
|-----------------------------|--------------------------------|
|-----------------------------|--------------------------------|
|-----------------------------|--------------------------------|
|-2-2-2S5-5-5-5S4-4-4-4S3-3-3-|-2-2-2S5-5-5-5S4-4-4-4S=8--8--8-|
|-2-2-------------------------|-2-2----------------------------|
|-0-0-0S3-3-3-3S2-2-2-2S1-1-1-|-0-0-0S3-3-3-3S2-2-2-2S=6--6--6-|
|
| E E S S S S S S S S S S S S   E E S S S S S S S S S  S  E
|-----------------------------|--------------------------------|
|-----------------------------|--------------------------------|
|-----------------------------|--------------------------------|
|-2-2-2S5-5-5-5S4-4-4-4S3-3-3-|-2-2-2S9-9-9-9S8-8-8-8S12-12\---|
|-2-2-------------------------|-2-2----------------------------|
|-0-0-0S3-3-3-3S2-2-2-2S1-1-1-|-0-0-0S7-7-7-7S6-6-6-6S10-10\---|


  E5  N.C.                      F5 N.C.  F5    N.C.  F5
  E E S S S S S S S S S S E     E. S +E  E +S  S +E  Q
|-----------------------------|-------------------------|
|-----------------------------|-------------------------|
|-----------------------------|-------------------------|
|-2-2-2S5-5-5-5S4-4-4-4S3-3---|-3--6-(6)-3-(3)-6-(6)-3--|
|-2-2-------------------------|-3--------3-(3)-------3--|
|-0-0-0S3-3-3-3S2-2-2-2S1-1---|-1--4-(4)-1-(1)-4-(4)-1--|
|
|                           PM
| E E S S S S S S S S S S S S   E. S +E  E +S  S +E  Q
|-----------------------------|-------------------------|
|-----------------------------|-------------------------|
|-----------------------------|-------------------------|
|-2-2-2S5-5-5-5S4-4-4-4S3-3---|-3--6-(6)-3-(3)-6-(6)-3--|
|-2-2-------------------------|-3--------3-(3)-------3--|
|-0-0-0S3-3-3-3S2-2-2-2S1-1-0-|-1--4-(4)-1-(1)-4-(4)-1--|


  E5  N.C.                      E5  N.C.
  E E S S S S S S S S S S S S   E E S S S S S S S S S  S  S  S   W
|-----------------------------|--------------------------------|------*|
|-----------------------------|--------------------------------|------*|
|-----------------------------|--------------------------------|------*|
|-2-2-2S5-5-5-5S4-4-4-4S3-3-3-|-2-2-2S5-5-5-5S4-4-4-4S=8--8--8-|------*|
|-2-2-------------------------|-2-2----------------------------|------*|
|-0-0-0S3-3-3-3S2-2-2-2S1-1-1-|-0-0-0S3-3-3-3S2-2-2-2S=6--6--6-|------*|
|
| E E S S S S S S S S S S S S   E E S S S S S S S S S  S  E      W
|-----------------------------|--------------------------------|------*|
|-----------------------------|--------------------------------|------*|
|-----------------------------|--------------------------------|------*|
|-2-2-2S5-5-5-5S4-4-4-4S3-3-3-|-2-2-2S9-9-9-9S8-8-8-8S12-12\---|------*|
|-2-2-------------------------|-2-2----------------------------|------*|
|-0-0-0S3-3-3-3S2-2-2-2S1-1-1-|-0-0-0S7-7-7-7S6-6-6-6S10-10\---|------*|



Duration Legend
---------------
W - whole; H - half; Q - quarter; E - 8th; S - 16th; T - 32nd; X - 64th; a - acciaccatura
+ - note tied to previous; . - note dotted; .. - note double dotted
Uncapitalized letters represent notes that are staccato (1/2 duration)
Irregular groupings are notated above the duration line
Duration letters will always appear directly above the note/fret number it represents the
duration for.  Duration letters with no fret number below them represent rests.  Multi-
bar rests are notated in the form Wxn, where n is the number of bars to rest for.  Low
melody durations appear below the staff

Tablature Legend
----------------
 h   - hammer-on
 p   - pull-off
 b   - bend
 pb  - pre-bend
 r   - bend release (if no number after the r, then release immediately)
 /\  - slide into or out of (from/to "nowhere")
 s   - legato slide
 S   - shift slide
 - natural harmonic
[n]  - artificial harmonic
n(n) - tapped harmonic
 ~   - vibrato
 tr  - trill
 T   - tap
 TP  - trem. picking
 PM  - palm muting
\n/  - tremolo bar dip; n = amount to dip
 \n  - tremolo bar down
 n/  - tremolo bar up
/n\  - tremolo bar inverted dip
 =   - hold bend; also acts as connecting device for hammers/pulls
 <> - volume swell (louder/softer)
 x   - on rhythm slash represents muted slash
 o   - on rhythm slash represents single note slash

Misc Legend
-----------
 |  - bar
||  - double bar
||o - repeat start
o|| - repeat end
*|  - double bar (ending)
 :  - bar (freetime)
 $  - Segno
 &  - Coda
Tempo markers -  = BPM(8/16=s8/s16), where s8 = swing 8ths, s16 = swing 16ths
            
Hard to play? Try these video lessons and learn fast. | Correct




comments powered by Disqus
↑ Back to top | Tablatures and chords are parodies/interpretations of the original songs. You may use it for private study, scholarship, research or language learning purposes only