» » »

Haunted, Demon Eyes Tabs (ver.1)

Artists:  A B C D E F G H I J K L M N O P Q R S T U V W X Y Z # 

Demon Eyes Tabs (ver.1)

Haunted Tabs
 Rating:
3.4/5 (5 votes)
Demon Eyes lessons Tabs too difficult? Try these video lessons and learn fast
1
                Band- Haunted
Song- Demon Eyes

gtr.1
        (riff 1)                                    (1a)
Db-----------------------------------------|--------------------|
Ab-----------------------------------------|--------------------|
E------------------------------------------|--------------------|
G------------------------7-----5--3--2--0--|---12---11---10-----|
D--7--7------6--7-----7-----6--------------|---12---11---10-----|
C--5-----5---------5-----------------------|---10----9----8-----|

*repeat riff 1 three more times, then play 1a once*

*repeat riff 1 until 1:20*

*play 1a at 1:24 into the song*

*guitar feedback until 1:38*

gtr.1
      1:39    (riff 2)
 --------------------------------------------------------------|
 --------------------------------------------------------------|
 ---2--2--2--2--2--1--1--1--2--2--2--2--2--1--1--1--0--2--2--2-|
 ---2--2--2--2--2--2--2--2--2--2--2--2--2--2--2--2--2--2--2--2-|
 ---2--2--2--2--2--2--2--2--2--2--2--2--2--2--2--2--2--2--2--2-|
 ---0--0--0--0--0-----------0--0--0--0--0--------------0--0--0-|
    .  .  .  .  .           .  .  .  .  .              .  .  .

 --------------------------------------------------------------|
 --------------------------------------------------------------|
 ---2--2--2--2--2--1--1--1--2--2--2--2--2--1--1--1--0--2--2--2-|
 ---2--2--2--2--2--2--2--2--2--2--2--2--2--2--2--2--2--2--2--2-|
 ---2--2--2--2--2--2--2--2--2--2--2--2--2--2--2--2--2--2--2--2-|
 ---0--0--0--0--0-----------0--0--0--0--0--------------0--0--0-|
    .  .  .  .  .           .  .  .  .  .              .  .  .

*repeat riff 2 until 2:25 into the song

gtr.2
      2:26  (riff 3)
 --------------------------------------------------------------|
 --------------------------------------------------------------|
 --5--2--5--8--7--5--2--5--8--7--5--2--5--8--7--5--2--5--8--7--|
 --6--3--6--9--8--6--3--6--9--8--6--3--6--9--8--6--3--6--9--8--|
 --6--3--6--9--8--6--3--6--9--8--6--3--6--9--8--6--3--6--9--8--|
 --4--1--4--7--6--4--1--4--7--6--4--1--4--7--6--4--1--4--7--6--|

*repeat riff 3 until 3:02 into the song*

gtr.2
      3:03  (riff 4)
 --3--------3---------3--------3---------3--------3------------|
 ----1h2-1----1h2-1-----1h2-1----1h2-1-----1h2-1----1h2-1------|
 --------------------------------------------------------------|
 --------------------------------------------------------------|
 --------------------------------------------------------------|
 --------------------------------------------------------------|

*repeat riff4 until 3:26 into the song*

gtr.1
      3:15-3:25 (comes in during riff 4)
 ------------------------------------------------------------|
 ------------------------------------------------------------|
 ---7--0--1--------7--0--1--5--------------------------------|
 -------------3----------------------------------------------|
 ------------------------------------------------------------|
 ------------------------------------------------------------|
      3:26-4:38(end)

gtr.1 (repeat the riff below until the song is ended):

 --------------------------------------------------------------|
 --------------------------------------------------------------|
 --------------------------------------------------------------|
 --------------------------------------------------------------|
 ------3--2---2--2\3-3/0--------------3--2-2-2\3-3\6-----------|
 --1--------------------4--4--3--1-----------------------------|

gtr.2 (comes in at 3:50 and fades out 4:38[end])

 --------------------------------------------------------------|
 --------------------------------------------------------------|
 ---10--8--5/3-------------------------------------------------|
 ---------------6/5/3----------b7-10\7--8--5--7--3--5--0-------|
 ---------------------3-5/7/8----------------------------------|
 --------------------------------------------------------------|

 --------------------------------------------------------------|
 --------------------------------------------------------------|
 -------------------------9--10--9--7----9--10--9--7---9b7-----|
 ---2b0--7b---2b0--7b10----------------------------------------|
 --------------------------------------------------------------|
 --------------------------------------------------------------|

 ------------------------v-----|
 ------------------------o-f---|
 --9b12---9b7---9b12-----l-a---|
 ------------------------u-d---|
 ------------------------m-e---|
 ------------------------e-----|
            
Submit corrections

comments powered by Disqus
↑ Back to top | Haunted Tabs for Demon Eyes. Lyrics for acoustic guitar and electric guitar. 1 Tablatures and chords are parodies/interpretations of the original songs. You may use it for private study, scholarship, research or language learning purposes only