» » »

Dark Intentions Tabs (ver.1)

Artists:  A B C D E F G H I J K L M N O P Q R S T U V W X Y Z # 

Dark Intentions Tabs (ver.1)

Haunted
Rating:
4/5 (1 vote)

Hard to play? Try these video lessons and learn fast.
                                           DARK INTENTIONS - v. 1.0
                                    28/05/2001



Tab notation:

p   = pull-off             x   = dead note (left hand)
h   = hammer-on            *   = palm mute (right hand)
t   = tap-on               X\  = pick slide
~   = vibrato              hm  = harmonic
/   = slide up             ah  = artificial harmonic
\   = slide down           ( ) = ghost note/bend note
^   = bend                 tr  = trill 
^r  = bend and release     tm  = trem picking 


Tuning :
 
 (6) = Eb       (3) = Gb
 (5) = Ab       (2) = Bb
 (4) = Db       (1) = eb                                
                                                  
*Help*
*In this tab I have used this note timings.*
 
| --------     | 1/2  | Half note
| ----         | 1/4  | Quarter note
| --           | 1/8  | Eight note
| -            | 1/16 | Sixteenth note

Tempo = 180 bpm.

                                                                                           
eb)|-------------|------------------------|------------------------|------------------------|
Bb)|-------------|------------------------|------------------------|------------------------|
Gb)|-------------|------------------------|--------7~--------------|------------------------|
Db)|-------------|--------9~---------8~---|-------------------8~---|--------9~---------8~---| Guitar I
Ab)|-------------|------------------------|------------------------|------------------------|
Eb)|--7/---12\---|--0--0-------0--0-------|--0--0-------0--0-------|--0--0-------0--0-------|

Eb)|-------------|------------------------|------------------------|------------------------|
Bb)|-------------|--------r----------r----|--------r----------r----|--------r----------r----|
Gb)|-------------|--------e----------e----|--------e----------e----|--------e----------e----|
Db)|-------------|--------s----------s----|--------s----------s----|--------s----------s----| Guitar II
Ab)|-------------|--2--2--t----2--2--t----|--2--2--t----2--2--t----|--2--2--t----2--2--t----|
Eb)|-------------|--0--0-------0--0-------|--0--0-------0--0-------|--0--0-------0--0-------|

*---------------------------------------------------------------------------*

eb)|---------------------------|------------------------|------------------------|------------------------|
Bb)|---------------------------|------------------------|------------------------|------------------------|
Gb)|---------------------------|------------------------|--------7~--------------|------------------------|
Db)|------------2-----------5--|--------9~---------8~---|-------------------8~---|--------9~---------8~---| Guitar I
Ab)|------------2-----------5--|------------------------|------------------------|------------------------|
Eb)|--0-0-0--0-----0--0--0-----|--0--0-------0--0-------|--0--0-------0--0-------|--0--0-------0--0-------|

eb)|---------------------------|------------------------|------------------------|------------------------|
Bb)|---------------------------|--------r----------r----|--------r----------r----|--------r----------r----|
Gb)|---------------------------|--------e----------e----|--------e----------e----|--------e----------e----|
Db)|------------2-----------5--|--------s----------s----|--------s----------s----|--------s----------s----| Guitar II
Ab)|------------2-----------5--|--2--2--t----2--2--t----|--2--2--t----2--2--t----|--2--2--t----2--2--t----|
Eb)|--0-0-0--0-----0--0--0-----|--0--0-------0--0-------|--0--0-------0--0-------|--0--0-------0--0-------|

*---------------------------------------------------------------------------*

eb)|---------------------------|------------------------|------------------------|------------------------|
Bb)|---------------------------|------------------------|------------------------|------------------------|
Gb)|---------------------------|------------------------|--------7~--------------|------------------------|
Db)|------------2-----------5--|--------9~---------8~---|-------------------8~---|--------9~---------8~---| Guitar I
Ab)|------------2-----------5--|------------------------|------------------------|------------------------|
Eb)|--0-0-0--0-----0--0--0-----|--0--0-------0--0-------|--0--0-------0--0-------|--0--0-------0--0-------|

eb)|---------------------------|------------------------|------------------------|------------------------|
Bb)|---------------------------|--------r----------r----|--------r----------r----|--------r----------r----|
Gb)|---------------------------|--------e----------e----|--------e----------e----|--------e----------e----|
Db)|------------2-----------5--|--------s----------s----|--------s----------s----|--------s----------s----| Guitar II
Ab)|------------2-----------5--|--2--2--t----2--2--t----|--2--2--t----2--2--t----|--2--2--t----2--2--t----|
Eb)|--0-0-0--0-----0--0--0-----|--0--0-------0--0-------|--0--0-------0--0-------|--0--0-------0--0-------|
                                                                                                      
*---------------------------------------------------------------------------*

eb)|--------------------------|------------------------|------------------------|------------------------|
Bb)|--------------------------|------------------------|------------------------|------------------------|
Gb)|--------------------------|------------------------|--------7~--------------|------------------------|
Db)|-----------2-----------5--|--------9~---------8~---|-------------------8~---|--------9~---------8~---| Guitar I
Ab)|-----------2-----------5--|------------------------|------------------------|------------------------|
Eb)|--0--0--0-----0--0--0-----|--0--0-------0--0-------|--0--0-------0--0-------|--0--0-------0--0-------|

eb)|--------------------------|------------------------|------------------------|------------------------|
Bb)|--------------------------|------------------------|------------------------|------------------------|
Gb)|--------------------------|------------------------|--------7~--------------|------------------------|
Db)|-----------2-----------5--|--------9~---------8~---|-------------------8~---|--------9~---------8~---| Guitar II
Ab)|-----------2-----------5--|------------------------|------------------------|------------------------|
Eb)|--0--0--0-----0--0--0-----|--0--0-------0--0-------|--0--0-------0--0-------|--0--0-------0--0-------|

*---------------------------------------------------------------------------*

eb)|--------------------------|------------------------|------------------------|------------------------|
Bb)|--------------------------|------------------------|------------------------|------------------------|
Gb)|--------------------------|------------------------|--------7~--------------|------------------------|
Db)|-----------2-----------5--|--------9~---------8~---|-------------------8~---|--------9~---------8~---| Guitar I
Ab)|-----------2-----------5--|------------------------|------------------------|------------------------|
Eb)|--0--0--0-----0--0--0-----|--0--0-------0--0-------|--0--0-------0--0-------|--0--0-------0--0-------|

eb)|--------------------------|--------------------------|--------------------------|--------------------------|
Bb)|--------------------------|--------------------------|--------------------------|--------------------------|
Gb)|--------------------------|--------------------------|--------------------------|--------------------------|
Db)|-----------2-----------5--|--------------------------|--------------------------|--------------------------| Guitar II
Ab)|-----------2-----------5--|-----------2-----------5--|-----------2-----------5--|-----------2-----------5--|
Eb)|--0--0--0-----0--0--0-----|--0--0--0--0--0--0--0--3--|--0--0--0--0--0--0--0--3--|--0--0--0--0--0--0--0--3--|

*---------------------------------------------------------------------------*

eb)|--------------------------|------------------------|------------------------|------------------------|
Bb)|--------------------------|------------------------|------------------------|------------------------|
Gb)|--------------------------|------------------------|--------7~--------------|------------------------|
Db)|-----------2-----------5--|--------9~---------8~---|-------------------8~---|--------9~---------8~---| Guitar I
Ab)|-----------2-----------5--|------------------------|------------------------|------------------------|
Eb)|--0--0--0-----0--0--0-----|--0--0-------0--0-------|--0--0-------0--0-------|--0--0-------0--0-------|

eb)|--------------------------|--------------------------|--------------------------|--------------------------|
Bb)|--------------------------|--------------------------|--------------------------|--------------------------|
Gb)|--------------------------|--------------------------|--------------------------|--------------------------|
Db)|-----------2-----------5--|--------------------------|--------------------------|--------------------------| Guitar II
Ab)|-----------2-----------5--|-----------2-----------5--|-----------2-----------5--|-----------2-----------5--|
Eb)|--0--0--0-----0--0--0-----|--0--0--0--0--0--0--0--3--|--0--0--0--0--0--0--0--3--|--0--0--0--0--0--0--0--3--|

*---------------------------------------------------------------------------*

eb)|--------------------------|--------------------------|--------------------------|--------------------------|
Bb)|--------------------------|--------------------------|--------------------------|--------------------------|
Gb)|--------------------------|--------------------------|--------------------------|--------------------------|
Db)|-----------2-----------5--|--------------------------|--------------------------|--------------------------| Guitar I
Ab)|-----------2-----------5--|-----------2-----------5--|-----------2-----------5--|-----------2--------------|
Eb)|--0--0--0-----0--0--0-----|--0--0--0--0--0--0--0--3--|--0--0--0--0--0--0--0--3--|--0--0--0--0--0--0--0--2--|

eb)|--------------------------|--------------------------|--------------------------|--------------------------|
Bb)|--------------------------|--------------------------|--------------------------|--------------------------|
Gb)|--------------------------|--------------------------|--------------------------|--------------------------|
Db)|-----------2-----------5--|--------------------------|--------------------------|--------------------------| Guitar II
Ab)|-----------2-----------5--|-----------2-----------5--|-----------2-----------5--|-----------2--------------|
Eb)|--0--0--0-----0--0--0-----|--0--0--0--0--0--0--0--3--|--0--0--0--0--0--0--0--3--|--0--0--0--0--0--0--0--2--|

*---------------------------------------------------------------------------*

eb)|--------------------------|--------------------------|--------------------------|--------------------------|
Bb)|--------------------------|--------------------------|--------------------------|--------------------------|
Gb)|--------------------------|--------------------------|--------------------------|--------------------------|
Db)|--------------------------|--------------------------|--------------------------|--------------------------| Guitar I
Ab)|--------------------------|-----------2-----------5--|-----------2-----------5--|-----------2--------------|
Eb)|--4--3--2--1--3--2--1--0--|--0--0--0--0--0--0--0--3--|--0--0--0--0--0--0--0--3--|--0--0--0--0--0--0--0--2--|

eb)|--------------------------|--------------------------|--------------------------|--------------------------|
Bb)|--------------------------|--------------------------|--------------------------|--------------------------|
Gb)|--------------------------|--------------------------|--------------------------|--------------------------|
Db)|--------------------------|--------------------------|--------------------------|--------------------------| Guitar II
Ab)|--------------------------|-----------2-----------5--|-----------2-----------5--|-----------2--------------|
Eb)|--4--3--2--1--3--2--1--0--|--0--0--0--0--0--0--0--3--|--0--0--0--0--0--0--0--3--|--0--0--0--0--0--0--0--2--|

*---------------------------------------------------------------------------*

eb)|--------------------------|---------------------|-----------------------|---------------------|
Bb)|--------------------------|---------------------|-----------------------|---------------------|
Gb)|--------------------------|---------------------|-----------------------|---------------------|
Db)|--------------------------|---------------------|-----------------------|---------------------| Guitar I
Ab)|--------------------------|--------2------------|-----------------------|--------2------------|
Eb)|--4--3--2--1--3--2--1--0--|--2--1--0------------|--------2--4--3--2--1--|--2--1--0------------|

eb)|--------------------------|---------------------|-----------------------|---------------------|
Bb)|--------------------------|---------------------|-----------------------|---------------------|
Gb)|--------------------------|---------------------|-----------------------|---------------------|
Db)|--------------------------|---------------------|-----------------------|---------------------| Guitar II
Ab)|--------------------------|--------2------------|-----------------------|--------2------------|
Eb)|--4--3--2--1--3--2--1--0--|--2--1--0------------|--------2--4--3--2--1--|--2--1--0------------|

*---------------------------------------------------------------------------*

eb)|-----------------------|---------------------|-----------------------|---------------------|-----------------------|
Bb)|-----------------------|---------------------|-----------------------|---------------------|-----------------------|
Gb)|-----------------------|---------------------|-----------------------|---------------------|-----------------------|
Db)|-----------------------|---------------------|-----------------------|---------------------|-----------------------| Guitar I
Ab)|-----------------------|--------2------------|-----------------------|--------2------------|-----------------------|
Eb)|--------2--4--3--2--1--|--2--1--0------------|--------2--4--3--2--1--|--2--1--0------------|--------2--4--3--2--1--|

eb)|-----------------------|---------------------|-----------------------|---------------------|-----------------------|
Bb)|-----------------------|---------------------|-----------------------|---------------------|-----------------------|
Gb)|-----------------------|---------------------|-----------------------|---------------------|-----------------------|
Db)|-----------------------|---------------------|-----------------------|---------------------|-----------------------| Guitar II
Ab)|-----------------------|--------2------------|-----------------------|--------2------------|-----------------------|
Eb)|--------2--4--3--2--1--|--2--1--0------------|--------2--4--3--2--1--|--2--1--0------------|--------2--4--3--2--1--|

*---------------------------------------------------------------------------*

eb)|--------------------------|--------------------------|--------------------------|---------------------------|
Bb)|--------------------------|--------------------------|--------------------------|---------------------------|
Gb)|--------------------------|---------7~---------------|--------------------------|---------------------------|
Db)|---------9~----------8~---|---------------------8~---|---------9~----------8~---|------------2-----------5--| Guitar I
Ab)|--------------------------|--------------------------|--------------------------|------------2-----------5--|
Eb)|--0-0-0-------0-0-0-------|--0-0-0-------0-0-0-------|--0-0-0-------0-0-0-------|--0-0-0--0-----0--0--0-----|

eb)|--------------------------|--------------------------|--------------------------|---------------------------|
Bb)|--------------------------|--------------------------|--------------------------|---------------------------|
Gb)|--------------------------|---------7~---------------|--------------------------|---------------------------|
Db)|---------9~----------8~---|---------------------8~---|---------9~----------8~---|------------2-----------5--| Guitar II
Ab)|--------------------------|--------------------------|--------------------------|------------2-----------5--|
Eb)|--0-0-0-------0-0-0-------|--0-0-0-------0-0-0-------|--0-0-0-------0-0-0-------|--0-0-0--0-----0--0--0-----|
                                                                                                             
*---------------------------------------------------------------------------*

eb)|--------------------------|--------------------------|--------------------------|---------------------------|
Bb)|--------------------------|--------------------------|--------------------------|---------------------------|
Gb)|--------------------------|---------7~---------------|--------------------------|---------------------------|
Db)|---------9~----------8~---|---------------------8~---|---------9~----------8~---|------------2-----------5--| Guitar I
Ab)|--------------------------|--------------------------|--------------------------|------------2-----------5--|
Eb)|--0-0-0-------0-0-0-------|--0-0-0-------0-0-0-------|--0-0-0-------0-0-0-------|--0-0-0--0-----0--0--0-----|

eb)|--------------------------|--------------------------|--------------------------|---------------------------|
Bb)|--------------------------|--------------------------|--------------------------|---------------------------|
Gb)|--------------------------|---------7~---------------|--------------------------|---------------------------|
Db)|---------9~----------8~---|---------------------8~---|---------9~----------8~---|------------2-----------5--| Guitar II
Ab)|--------------------------|--------------------------|--------------------------|------------2-----------5--|
Eb)|--0-0-0-------0-0-0-------|--0-0-0-------0-0-0-------|--0-0-0-------0-0-0-------|--0-0-0--0-----0--0--0-----|

*---------------------------------------------------------------------------*

eb)|--------------------------|--------------------------|--------------------------|---------------------------|
Bb)|--------------------------|--------------------------|--------------------------|---------------------------|
Gb)|--------------------------|---------7~---------------|--------------------------|---------------------------|
Db)|---------9~----------8~---|---------------------8~---|---------9~----------8~---|------------2-----------5--| Guitar I
Ab)|--------------------------|--------------------------|--------------------------|------------2-----------5--|
Eb)|--0-0-0-------0-0-0-------|--0-0-0-------0-0-0-------|--0-0-0-------0-0-0-------|--0-0-0--0-----0--0--0-----|

eb)|--------------------------|--------------------------|--------------------------|---------------------------|
Bb)|--------------------------|--------------------------|--------------------------|---------------------------|
Gb)|--------------------------|---------7~---------------|--------------------------|---------------------------|
Db)|---------9~----------8~---|---------------------8~---|---------9~----------8~---|------------2-----------5--| Guitar II
Ab)|--------------------------|--------------------------|--------------------------|------------2-----------5--|
Eb)|--0-0-0-------0-0-0-------|--0-0-0-------0-0-0-------|--0-0-0-------0-0-0-------|--0-0-0--0-----0--0--0-----|

*---------------------------------------------------------------------------*

eb)|--------------------------|--------------------------|--------------------------|---------------------------|
Bb)|--------------------------|--------------------------|--------------------------|---------------------------|
Gb)|--------------------------|---------7~---------------|--------------------------|---------------------------|
Db)|---------9~----------8~---|---------------------8~---|---------9~----------8~---|------------2-----------5--| Guitar I
Ab)|--------------------------|--------------------------|--------------------------|------------2-----------5--|
Eb)|--0-0-0-------0-0-0-------|--0-0-0-------0-0-0-------|--0-0-0-------0-0-0-------|--0-0-0--0-----0--0--0-----|

eb)|--------------------------|--------------------------|--------------------------|---------------------------|
Bb)|--------------------------|--------------------------|--------------------------|---------------------------|
Gb)|--------------------------|---------7~---------------|--------------------------|---------------------------|
Db)|---------9~----------8~---|---------------------8~---|---------9~----------8~---|------------2-----------5--| Guitar II
Ab)|--------------------------|--------------------------|--------------------------|------------2-----------5--|
Eb)|--0-0-0-------0-0-0-------|--0-0-0-------0-0-0-------|--0-0-0-------0-0-0-------|--0-0-0--0-----0--0--0-----|

*---------------------------------------------------------------------------*

eb)|-------------------|------------------|------------------|------------------|
Bb)|-------------------|------------------|------------------|------------------|
Gb)|-------------------|------------------|------------------|------------------|
Db)|-------------------|------------------|------------------|------------------| Guitar I
Ab)|--2----------------|-(2)--------------|-(2)--------------|-(2)--------------|
Eb)|--0----------------|-(0)--------------|-(0)--------------|-(0)--------------|

eb)|-------------------|------------------|------------------|------------------|
Bb)|-------------------|------------------|------------------|------------------|
Gb)|-------------------|------------------|------------------|------------------|
Db)|-------------------|------------------|------------------|------------------| Guitar II
Ab)|--2----------------|-(2)--------------|-(2)--------------|-(2)--------------|
Eb)|--0----------------|-(0)--------------|-(0)--------------|-(0)--------------|

*---------------------------------------------------------------------------*

eb)|-------------------|------------------|------------------|------------------|
Bb)|-------------------|------------------|------------------|------------------|
Gb)|-------------------|------------------|------------------|------------------|
Db)|-------------------|------------------|------------------|------------------| Guitar I
Ab)|-(2)---------------|-(2)--------------|-(2)--------------|-(2)--------------|
Eb)|-(0)---------------|-(0)--------------|-(0)--------------|-(0)--------------|

eb)|-------------------|------------------|------------------|------------------|
Bb)|-------------------|------------------|------------------|------------------|
Gb)|-------------------|------------------|------------------|------------------|
Db)|-------------------|------------------|------------------|------------------| Guitar II
Ab)|-(2)---------------|-(2)--------------|-(2)--------------|-(2)--------------|
Eb)|-(0)---------------|-(0)--------------|-(0)--------------|-(0)--------------|

*---------------------------------------------------------------------------
            
Hard to play? Try these video lessons and learn fast. | Correct




comments powered by Disqus
↑ Back to top | Tablatures and chords are parodies/interpretations of the original songs. You may use it for private study, scholarship, research or language learning purposes only