» » »

Creed Tabs (ver.1)

Artists:  A B C D E F G H I J K L M N O P Q R S T U V W X Y Z # 

Creed Tabs (ver.1)

Haunted
Rating:
0/5 (0 votes)

Tabs too difficult? Try these video lessons and learn fast.
                Band- Haunted
Song- Creed

Riff A  					   Gtr.1
|-------------------------|-----------------------------------|
|-------------------------|-----------------------------------|
|-------------------------|-----------------------------------|
|-------------------------|-----------------------------------|
|-------------------------|-----------------------------------|
|--2--5--6---3---2--0--1--|--======----=======-----=======----|

						   Gtr.2
|-------------------------|-----------------------------------|
|-------------------------|-----------------------------------|
|-------------------------|-----------------------------------|
|-------------------------|-----------------------------------|
|-------------------------|-----------------------------------|
|-2"-3"-2"-5"--2"-3"-2"-5"|-2"3"2"5"2"-5"6"3--"2"3"2"5"2"-0-1-|

Riff B x2		       b2              b3
|-----------------------------|---------------|---------------|
|-----------------------------|---------------|---------------|
|-----------------------------|---------------|---------------|
|-----10-9h10p9--11-10-9h10p9-|---------------|---------------|
|-9-9-------------------------|-7-7-10-9h10p7-|-12-11-10h11p10|
|-----------------------------|---------------|---------------|

Fill 1            Riff C (repeat as neccesary)
|-------------|  |---------------------|
|-------------|  |---------------------|
|-------------|  |---------------------|
|-------------|  |---------------------|
|-------------|  |---------------------|
|-320-320-2-0-|  |-1"-2"-1"----6-5-3/8-|

Riff D				       d2
|-------------------------------------|--------|
|-------------------------------------|--------|
|-------------------------------------|--------|
|-------------------------------------|--------|
|-------------------------------------|--------|
|-0000-0000-6-0000-0000-5-0000-0000-6-|-0000-6-|

Riff E (Chorus Riff)
|-----------------------------------------------------------------|
|-----------------------------------------------------------------|
|-----------------------------------------------------------------|
|-----------------------------------------------------------------|
|--7777777-1010101010-77-777-1010-99-77777777-10101010/13--12-10--|
|-----------------------------------------------------------------|
^^all '10's are tenth fret notes^^

e2
|---------------------------------------------------------------|
|---------------------------------------------------------------|
|---------------------------------------------------------------|
|---------------------------------------------------------------|
|--13-13-13-12--10-10-10-9--10-10-9-7--13-13-13-12--10-10-10-9--|
|---------------------------------------------------------------|

Fill 2		   Riff F (palm muted)
|----------------||-----------------------------------------|
|----------------||-----------------------------------------|
|----------------||-----------------------------------------|
|----------------||-----------------------------------------|
|--6----3----8---||--------------3/1p0----------------3/1p0-|
|--4*---1*---6*--||-2-3-532--2-3---------2-3-532--2-3-------|

Riff G (Trem picking each note)(palm muted)
|------------------------------------------------------------------|
|------------------------------------------------------------------|
|------------------------------------------------------------------|
|------------------------------------------------------------------|
|------------------------------------------------------------------|
|--2-3-2-5--2-3-2-5---2-3-2-5--2-3-2-5---2-3-2-5--2-3-2-5--======--|

Riff H
|------------------------------|
|------------------------------|
|------------------------------|
|------------------------------|
|------------------------------|
|--0000-0-0000-0-0000-0-00000--|

*Song Structure*
Riff:
	A
	B
	b2
	b3
	b2
	Fill 1
	C
	D, d2
	C
	D, d2
	E
	b2, b3, b2
	C
	D
	E, e2
	Fill 2
	F
	G
	D
	Fill 1
	E, e2
	Fill 2
	H
	Fill 2
	Fill 1
            
Tabs too difficult? Try these video lessons and learn fast.




comments powered by Disqus
↑ Back to top | Tablatures and chords are parodies/interpretations of the original songs. You may use it for private study, scholarship, research or language learning purposes only