» » »

Choke Hold Tabs (ver.1)

Artists:  A B C D E F G H I J K L M N O P Q R S T U V W X Y Z # 

Choke Hold Tabs (ver.1)

Haunted
Rating:
0/5 (0 votes)

Hard to play? Try these video lessons and learn fast.
                                          THE HAUNTED - CHOKEHOLD
                            From "The Haunted"            



For Questions, Comments, Corrections, Requests

Check out The Reaper's Metal Tablature Archive at

.  - palm mute                          /  - slide up to
\  - slide down to                      ~  - vibrato
"  - tremelo picking                    () - ghost note
p  - pull off                           h  - hammer-on 
tr - trill notes                        fb - full bend (1step)
< > - harmonic

The Haunted - Chokehold

Tuned 1/2 step down (EbAbDbGbBbEb)

Intro
|------------------------------------------------------------------|
|------------------------------------------------------------------|
|------------------------------------------------------------------|
|----5-7-8---5---7-8--/\pick---------------------------------------|
|---------------------/\----slide----------------------------------|
|-00-------0---0------/\-------------------------------------------|
  ..       .   .

Riff A
|------------------------------------------------------------------|
|------------------------------------------------------------------|
|------------------------------------------------------------------|
|----5-7-8---5---7-8----5-7-8---5p2---9-999------------------------|
|-------------------------------------7-777------------------------|
|-00-------0---0-----00-------0-----0------------------------------|
  ..       .   .     ..       .     .

|------------------------------------------------------------------|
|------------------------------------------------------------------|
|-------------------------------------10-10-10-10------------------|
|----5-7-8---5---7-8----5-7-8---5p2---9--9--9--9-------------------|
|-------------------------------------7--7--7--7-------------------|
|-00-------0---0-----00-------0-----0------------------------------|
  ..       .   .     ..       .     .

Riff B (Extremely Fast)
|------------------------------------------------------------------|
|------------------------------------------------------------------|
|------------------------------------------------------------------|The first time you play
|------------------------------------------------------------------|this riff, this is all
|--------3---2---3---2---3----------3---2---3---2-444-444----------|you play
|-2222-5---4---5---4---5---4-2222-5---4---5---4---222-222----------|

|------------------------------------------------------------------|
|------------------------------------------------------------------|
|------------------------------------------------------------------|
|--------------------------5-4-----------------------5-2-----------|
|--------3---2---3---2---3------------3---2---3---2----------------|
|-2222-5---4---5---4---5-------2222-5---4---5---4------------------|

Riff C
|------------------------------------------------------------------|
|------------------------------------------------------------------|
|------------------------------------------------------------------|
|------------------------------------------------------------------|
|----7---7----6---6----7---7-----------7---7----6---6----7---7-5-8-|
|-00---0---00---0---00---0---131413-00---0---00---0---00---0---3-6-|
  ..   .   ..   .   ..   .   ...... ..   .   ..   .   ..   .

|------------------------------------------------------------------|
|------------------------------------------------------------------|
|------------------------------------------------------------------|
|------------------------------------------------------------------|
|----7---7----6---6----7---7-----------7---7----6---6----7---7-542-|
|-00---0---00---0---00---0---131413-00---0---00---0---00---0---320-|
  ..   .   ..   .   ..   .   ...... ..   .   ..   .   ..   .

Riff D
|------------------------------------------------------------------|
|------------------------------------------------------------------|
|------------------------------------------------------------------|
|------------------------------------------------------------------|
|----5-7-8---5---7-8----5-7-8--5-2---2-222-------------------------|
|-00-3-5-6-0-3-0-5-6-00-3-5-6--3p0-0-0-000-------------------------|
  ..       .   .     ..            .

|------------------------------------------------------------------|
|------------------------------------------------------------------|
|-----------------------------------9-999--------------------------|
|------------------------------------------------------------------|
|----5-7-8---5---7-8----5-7-8-5-2---7-777--------------------------|
|-00-3-5-6-0-3-0-5-6-00-3-5-6-3p0-0--------------------------------|
  ..       .   .     ..           .

Riff E
|------------------------------------------------------------------|
|------------------------------------------------------------------|
|------------------------------------------------------------------|
|------------------------------------------------------------------|
|------------------------------------------------------------------|
|-666666-3-5-3-000-000-000-666666-3-5-3-000-000-000-666666-3-5-3---|
  ...... . . . ... ... ... ...... . . . ... ... ... ...... . . .
|------------|-----------------|-----------------------------------|
|------------|-----------------|-----------------------------------|
|------------|-----------------|-----------------------------------|
|------------|-----------------|-5555555-5----5----5-5----5----5---|
|------------|-33333333--------|-3333333---------------------------|
|-000-000-000|----------3-6-36-|---------3-33-3-33-3-3-33-3-33-3---|
  ... ... ...                              ..   ..     ..   ..

Riff F
|------------------9-----------------------------------------------|
|------------------9-----------------------------------------------|
|------------------------------------------------------------------|
|----------------------------------9-9-7-9-------------------------|
|----5-7-8---5---7-------5-7-8-5-2-7-7-5-7-------------------------|
|-00-3-5-6-0-3-0-5---000-3-5-6-3p0---------------------------------|
  ..       .   .     ...     

Riff G
|------------------------------------------------------------------|
|------------------------------------------------------------------|
|---------------------------------4444------2222-------------------|
|------------------------------------------------------------------|
|----7---7----6---6----7---7-3333------2222------------------------|
|-00---0---00---0---00---0-----------------------------------------|
  ..   .   ..   .   ..   .

|------------------------------------------------------------------|
|------------------------------------------------------------------|
|------------------------------------------------------------------|
|------------------------------------------------------------------|
|----7---7----6---6----7---7-5-8-----------------------------------|
|-00---0---00---0---00---0---3-6-----------------------------------|
  ..   .   ..   .   ..   .

|------------------------------------------------------------------|
|------------------------------------------------------------------|
|---------------------------------4444------2222-------------------|
|------------------------------------------------------------------|
|----7---7----6---6----7---7-3333------2222------------------------|
|-00---0---00---0---00---0-----------------------------------------|
  ..   .   ..   .   ..   .

|------------------------------------------------------------------|
|------------------------------------------------------------------|
|------------------------------------------------------------------|
|------------------------------------------------------------------|
|----7---7----6---6----7---7-5-3-----------------------------------|
|-00---0---00---0---00---0---3-1-----------------------------------|
  ..   .   ..   .   ..   .

Play Riff G twice, but the 2nd time the 2nd guitar plays this
|------------------------------------------------------------------|
|------------------------------------------------------------------|
|------------------------------------------------------------------|
|----5---5----4---4----5---5---------------------------------------|
|------------------------------------------------------------------|
|-00---0---00---0---00---0-----------------------------------------|
  ..   .   ..   .   ..   .
            
Hard to play? Try these video lessons and learn fast. | Correct




comments powered by Disqus
↑ Back to top | Tablatures and chords are parodies/interpretations of the original songs. You may use it for private study, scholarship, research or language learning purposes only