» » »

Haunted, Chasm Tabs (ver.2)

Artists:  A B C D E F G H I J K L M N O P Q R S T U V W X Y Z # 

Chasm Tabs (ver.2)

Haunted Tabs
Rating:
0/5 (0 votes)
Chasm lessons Tabs too difficult? Try these video lessons and learn fast
                
CHASM
As recorded by The Haunted
(From the 1998 Album THE HAUNTED)

	

Words by Peter Dolving Music by Anders Björler

F#5
2 4 x x x x
	
G5
3 5 x x x x
	
F5
1 3 x x x x

Gtr I (Eb Ab Db Gb Bb Eb) - 'Gtr I'
Gtr II (Eb Ab Db Gb Bb Eb) - 'Gtr II'

 Intro
  Fast Metal (Half-Time) Q=220
  N.C.(F#)
 4/4
  Gtrs I, II
  W          +W           +W           +H      H
|----------|------------|------------|---------------||
|----------|------------|------------|---------------||
|----------|------------|------------|---------------||
|-4--------|-(4)--------|-(4)--------|-(4)-----------||
|----------|------------|------------|---------------||
|-2--------|-(2)--------|-(2)--------|-(2)----/x\----||


   4/4                                                   3/4
       PM      PM     PM   PM------|      PM      PM          PM
                                                                |-3-| |-3-|
    Q  E E +E  E Q    E Q  E E E E E   Q  E E +E  E E E   +E  E E E E E E E
||------------------|----------------|------------------|-------------------|
||o-----------------|----------------|------------------|-------------------|
||------------------|----------------|------------------|-------------------|
||------------------|----------------|------------------|-------------------|
||o-----------------|--------2-------|----------------5-|-(5)---------------|
||--2--0-2-(2)-0-2--|-0-2--0---3-2-3-|-2--0-2-(2)-0-2---|-----0-6p5p3-6p5p3-|


  1.
 4/4                                                   3/4
     PM      PM     PM   PM------|      PM      PM          PM
                                                              |-3-| |-3-|
  Q  E E +E  E Q    E Q  E E E E E   Q  E E +E  E E E   +E  E E E E E E E
|-----------------|----------------|------------------|---------------------||
|-----------------|----------------|------------------|--------------------o||
|-----------------|----------------|------------------|---------------------||
|-----------------|----------------|------------------|---------------------||
|-----------------|--------2-------|----------------5-|-(5)----------------o||
|-2--0-2-(2)-0-2--|-0-2--0---3-2-3-|-2--0-2-(2)-0-2---|-----0-3p2p0-3p2p0---||


  2.
                                     F#5E5F#5   E5Bb5  N.C.
 4/4
     PM      PM     PM   PM------|      PM      PM
  Q  E E +E  E Q    E Q  E E E E E   Q  e E +E  e Q    W
|-----------------|----------------|-----------------|------||
|-----------------|----------------|-----------------|------||
|-----------------|----------------|-----------------|------||
|-----------------|----------------|--------------3--|------||
|-----------------|--------2-------|-4--2-4-(4)-2-1--|------||
|-2--0-2-(2)-0-2--|-0-2--0---3-2-3-|-2--0-2-(2)-0----|------||


 Pre-Verse
  F#5    N.C.                                                     G5F#G5F#5
  Gtr II
  H      H         W                     W                H       E E E E
  |                                                               | | | |
  /                                                               / / / /

  Gtr I
  PM|    PM  PM|     PM--|   PM          PM|    PM  PM|     PM--|
                               |-3-|
  E E Q  E E E E   E E E E E E S S S E   E E Q  E E E E   E E E E E E E E
|----------------|---------------------|----------------|-------------------|
|----------------|---------------------|----------------|-------------------|
|----------------|---------------------|----------------|-------------------|
|----------------|---------------------|----------------|-------------------|
|----------2-----|-1-------5-----------|----------2-----|-1-------5-4-5-4---|
|-2-0-2--0---3-2-|---3-2-0---3-2h3p2-0-|-2-0-2--0---3-2-|---3-2-0-3-2-3-2---|


  F#5                                                       N.C.    G5F#G5F#5
  W                +W                     +W                H       E E E E
  |                 |                      |                |       | | | |
  /                 /                      /                x       / / / /

  PM|    PM  PM|      PM--|   PM           PM|    PM  PM|     PM--|
                                |-3-|
  E E Q  E E E E    E E E E E E S S S E    E E Q  E E E E   E E E E E E E E
|----------------|----------------------|-----------------|-------------------||
|----------------|----------------------|-----------------|-------------------||
|----------------|----------------------|-----------------|-------------------||
|----------------|----------------------|-----------------|-------------------||
|----------2-----|--1-------5-----------|-----------2-----|-1-------5-4-5-4---||
|-2-0-2--0---3-2-|----3-2-0---3-2h3p2-0-|--2-0-2--0---3-2-|---3-2-0-3-2-3-2---||


 Verse
  (Double-Time) Q=220
  $
  $$
  N.C.
  Gtrs I, II
  PM|    PM  PM|     PM--|   PM          PM|    PM  PM|     PM--|
                               |-3-|
  E E Q  E E E E   E E E E E E S S S E   E E Q  E E E E   E E E E S S E S S E
|----------------|---------------------|----------------|---------------------|
|----------------|---------------------|----------------|---------------------|
|----------------|---------------------|----------------|---------------------|
|----------------|---------------------|----------------|---------------------|
|----------2-----|-1-------5-----------|----------2-----|-1-------------------|
|-2-0-2--0---3-2-|---3-2-0---3-2h3p2-0-|-2-0-2--0---3-2-|---3-2-0-3p2p0-0h2h3-|


                                                                    G5 F#5
               PM|     PM--|   PM          PM|    PM  PM|     PM--|
                                 |-3-|
  S S E Q  E E E E   E E E E E E S S S E   E E Q  E E E E   E E E E Q  Q
|------------------|---------------------|----------------|----------------|
|------------------|---------------------|----------------|----------------|
|------------------|---------------------|----------------|----------------|
|------------------|---------------------|----------------|----------------|
|------------2-----|-1-------5-----------|----------2-----|-1-------5--4---|
|-3p2p0-2--0---3-2-|---3-2-0---3-2h3p2-0-|-2-0-2--0---3-2-|---3-2-0-3--2---|


  N.C.
  PM|        PM|     PM------|           PM|        PM|     PM--|
                               |-3-|
  E E Q  E E E E   E E E E E E S S S E   E E Q  E E E E   E E E E E E E E
|----------------|---------------------|----------------|-------------------|
|----------------|---------------------|----------------|-------------------|
|----------------|---------------------|----------------|-------------------|
|----------2-----|-1-------5-----------|----------2-----|-1-----------------|
|-2-0-2--0---3-2-|---3-2-0---3-2h3p2-0-|-2-0-2--0---3-2-|---3-2-0-3-2-0-----|
|----------------|---------------------|----------------|---------------3---|


                                                                  G5 F#5
  PM|    PM  PM|     PM--|   PM          PM|    PM  PM|     PM--|
                               |-3-|
  E E Q  E E E E   E E E E E E S S S E   E E Q  E E E E   E E E E Q  Q
|----------------|---------------------|----------------|-----------------||
|----------------|---------------------|----------------|-----------------||
|----------------|---------------------|----------------|-----------------||
|----------------|---------------------|----------------|-----------------||
|----------2-----|-1-------5-----------|----------2-----|-1-------5--4----||
|-2-0-2--0---3-2-|---3-2-0---3-2h3p2-0-|-2-0-2--0---3-2-|---3-2-0-3--2----||


   Chorus
    N.C.(E) (D) (E)     (F)        (G#)
    PM|   PM  PM  PM          PM
    E E E E E E E E   E  E  E E  E  E  E  E
||------------------|-----------------------|
||o-----------------|-----------------------|
||------9---7---9---|-9s10-10---10s13-13-13-|
||------------------|-----------------------|
||o-----7---5---7---|-7s=8--8----8s11-11-11-|
||--0-0---0---0---0-|---------0-------------|


                   1.                  2.
                                          D.S.
  (E)     (D) (E)   F5 Bb5  G5A5       F5   G5
  PM|   PM  PM  PM
  E E E E E E E E    E E Q  E E Q      H    H
|-----------------|-----------------||------------||
|-----------------|----------------o||------------||
|-----9---7---9---|-----------------||------------||
|-----------------|-10--------------||------------||
|-----7---5---7---|--8-8-8--5-7-7--o||-3----5-----||
|-0-0---0---0---0-|----6-6--3-5-5---||-1----3-----||


   Chorus cont.
    (Half-Time) Q=220
    E5
    Gtr I
    PM|     PM|       PM|        PM|
    E E Q   E E Q     E  E  Q    E  E  Q
||------------------|-----------------------|
||o-----------------|-----------------------|
||------------------|-----------------------|
||------------------|-----------------------|
||o-2-2-----2-2-----|-2--2-------2--2-------|
||--0-0-----0-0-----|-0--0-------0--0-------|
|
|   Gtr II
|   PM|   PM  PM  PM          PM
|   E E E E E E E E   E  E  E E  E  E  E  E
||------------------|-----------------------|
||o-----------------|-----------------------|
||------9---7---9---|-9s10-10---10s13-13-13-|
||------------------|-----------------------|
||o-----7---5---7---|-7s=8--8----8s11-11-11-|
||--0-0---0---0---0-|---------0-------------|


                   1.                  2.
    To Dbl. Coda
                    F5 Bb5  G5A5       F5   G5
  PM|     PM|
  E E Q   E E Q      E E Q  E E Q      H    H
|-----------------|-----------------||-----------||
|-----------------|----------------o||-----------||
|-----------------|-----------------||-----------||
|-----------------|-10--------------||-----------||
|-2-2-----2-2-----|--8-8-8--5-7-7--o||-3----5----||
|-0-0-----0-0-----|----6-6--3-5-5---||-1----3----||
|
| PM|   PM  PM  PM
| E E E E E E E E    E E Q  E E Q      H    H
|-----------------|-----------------||-----------||
|-----------------|----------------o||-----------||
|-----9---7---9---|-----------------||-----------||
|-----------------|-10--------------||-----------||
|-----7---5---7---|--8-8-8--5-7-7--o||-3----5----||
|-0-0---0---0---0-|----6-6--3-5-5---||-1----3----||


 Guitar Solo
  (Double-Time) Q=220
  N.C.
  Gtr I
   Q       +Q     +Q.     +E     +H        +Q    Q
|-22b24===(22)---(22)----(22)r|=(22)------(22)--24---|
|-----------------------------|----------------------|
|-----------------------------|----------------------|
|-----------------------------|----------------------|
|-----------------------------|----------------------|
|-----------------------------|----------------------|
|
| Gtr II
|  Q        E  E   Q   E   E      Q   E E   Q    E E
|-----------------------------|----------------------|
|-----------------------------|----------------------|
|-----------------------------|----------------------|
|-----------------------------|----------------------|
|-----------------------------|----------------------|
|--2--------2--3---2---2---5--|---2---2-3---2----2-5-|


  C5             N.C.
   +Q        +Q     +H          +H        +H
|-(24)b26===(24)---(24)------|-(24)r=====(24)-------|
|----------------------------|----------------------|
|----------------------------|----------------------|
|----------------------------|----------------------|
|----------------------------|----------------------|
|----------------------------|----------------------|
|
|   Q         E  E   Q   E E     Q   E E   E  E E E
|----------------------------|----------------------|
|----------------------------|----------------------|
|----------------------------|----------------------|
|---5------------------------|----------------------|
|---3------------------------|----------------------|
|-------------2--3---2---2-5-|---2---0-3---2--3-5-3-|


      \3______________________________/
  Q  +Q     +H         +H       +Q    Q
|-0--(0)----(0)------|-(0)------(0)--<5>---|
|--------------------|---------------------|
|--------------------|---------------------|
|--------------------|---------------------|
|--------------------|---------------------|
|--------------------|---------------------|
|
| Q   E   E  Q   E E    Q   E E  Q    E  E
|--------------------|---------------------|
|--------------------|---------------------|
|--------------------|---------------------|
|--------------------|---------------------|
|--------------------|---------------------|
|-2---2---3--2---2-5-|--2---2-3--2----2--5-|


                            |
   +H         +H           +W
|-(<5>)------(<5>)------|-(<5>)--------------||
|-----------------------|--------------------||
|-----------------------|--------------------||
|-----------------------|--------------------||
|-----------------------|--------------------||
|-----------------------|--------------------||
|
|   Q    E E   Q    E E     Q    E E E E E E
|-----------------------|--------------------||
|-----------------------|--------------------||
|-----------------------|--------------------||
|---5-------------------|--------------------||
|---3-------------------|--------------------||
|--------2-3---2----2-5-|---2----0-3-2-3-5-3-||


   Interlude
    N.C.
    Gtrs I, II
    PM--|     PM|       PM|     PM|           PM    PM|
                                                               |-3-|
    E E E E E E E E   E E E E E E E E   +E  E E E E E E E   Q  E E E E E E E
||------------------|-----------------|-------------------|-------------------||
||o-----------------|-----------------|-------------------|------------------o||
||------------------|-----------------|-------------------|-------------------||
||----------------5-|-------8---------|-----------------5-|--------------5----||
||o-------8-7-------|-7-------7-----5-|-(5)-7---8-7-------|-7--5h7h8-7-8---8-o||
||--0-0-0-----0-0---|---0-0-----0-0---|-------0-----0-0---|-------------------||


 Guitar Solo cont.
  N.C.
  Gtr I
   Q       +Q     +H          +H        +Q    Q
|-14------(14)---(14)------|-(14)------(14)-------|
|-17b19===(17)---(17)------|-(17)r=====(17)--15---|
|--------------------------|----------------------|
|--------------------------|----------------------|
|--------------------------|----------------------|
|--------------------------|----------------------|
|
| Gtr II
|  Q        E  E   Q   E E     Q   E E   Q    E E
|--------------------------|----------------------|
|--------------------------|----------------------|
|--------------------------|----------------------|
|--------------------------|----------------------|
|--------------------------|----------------------|
|--2--------2--3---2---2-5-|---2---2-3---2----2-5-|


  C5  N.C.
   ~~
                        |---3---|
   W                Q   E  E    E  Q    Q
|----------------|----------------------------|
|-14-------------|-15--14h15p==14-12---15-----|
|----------------|----------------------------|
|----------------|----------------------------|
|----------------|----------------------------|
|----------------|----------------------------|
|
|  Q  E E Q  E E    Q   E    E     E E  E E
|----------------|----------------------------|
|----------------|----------------------------|
|----------------|----------------------------|
|--5-------------|----------------------------|
|--3-------------|----------------------------|
|-----2-3-2--2-5-|--2---0----3-----2-3--5-3---|


   ~~~~~~~~~~~~~~~~~~~~~
   W                +Q.     +Q.     Q
|----------------|----------------------|
|----------------|----------------------|
|-11-------------|-(11)----(11)\--------|
|----------------|----------------------|
|----------------|----------------------|
|----------------|----------------------|
|
|  Q  E E Q  E E     Q   E   E   Q  E E
|----------------|----------------------|
|----------------|----------------------|
|----------------|----------------------|
|----------------|----------------------|
|----------------|----------------------|
|--2--2-3-2--2-5-|---2---2---3---2--2-5-|


  C5          N.C.
   T     T     T     T     T     T     T     T       T     T     T           ~~
   S  S  S  S  S  S  S  S  S  S  S  S  S  S  S  S    S  S  S  S  S  S  S  S  H
|-17p15-17p15-17p15-17p14-17p14-17p14-------------|----------------------------------||
|-------------------------------------17p15-17p15-|-17p15-17p14-17p14-17p14-12-------||
|-------------------------------------------------|----------------------------------||
|-------------------------------------------------|----------------------------------||
|-------------------------------------------------|----------------------------------||
|-------------------------------------------------|----------------------------------||
|
|  Q           E     E     Q           E     E       Q           E     E     E E E E
|-------------------------------------------------|----------------------------------||
|-------------------------------------------------|----------------------------------||
|-------------------------------------------------|----------------------------------||
|--5----------------------------------------------|----------------------------------||
|--3----------------------------------------------|----------------------------------||
|--------------2-----3-----2-----------2-----5----|--2-----------0-----3-----2-3-5-3-||


   Interlude
    N.C.
    Gtrs I, II
    PM--|     PM|       PM|     PM|           PM    PM|
    E E E E E E E E   E E E E E E E E   +E  E E E E E E E
||------------------|-----------------|-------------------|
||o-----------------|-----------------|-------------------|
||------------------|-----------------|-------------------|
||----------------5-|-------8---------|-----------------5-|
||o-------8-7-------|-7-------7-----5-|-(5)-7---8-7-------|
||--0-0-0-----0-0---|---0-0-----0-0---|-------0-----0-0---|


 1.                    2.
                    D.S.S. al Dbl. Coda
                         PM--|
     |-3-|
  Q  E E E E E E E     E E E E E E E E
|-------------------||------------------||
|------------------o||------------------||
|-------------------||------------------||
|--------------5----||------------------||
|-7--5h7h8-7-8---8-o||-7-----------2-3--||
|-------------------||---0-0-0-3-5------||


          Outro
  &&
  F5 G5    N.C.
 2/4      4/4
  Gtrs I, II
              PM      PM     PM   PM------|
  Q  Q     Q  E E +E  E Q    E Q  E E E E E
|-------||-----------------|----------------|
|-------||-----------------|----------------|
|-------||-----------------|----------------|
|-------||-----------------|----------------|
|-3--5--||-----------------|--------2-------|
|-1--3--||-2--0-2-(2)-0-2--|-0-2--0---3-2-3-|


                    3/4
     PM      PM          PM
                           |-3-| |-3-|
  Q  E E +E  E E E   +E  E E E E E E E
|------------------|-------------------|
|------------------|-------------------|
|------------------|-------------------|
|------------------|-------------------|
|----------------5-|-(5)---------------|
|-2--0-2-(2)-0-2---|-----0-6p5p3-6p5p3-|


 4/4                                                   3/4
     PM      PM     PM   PM------|      PM      PM          PM
                                                              |-3-| |-3-|
  Q  E E +E  E Q    E Q  E E E E E   Q  E E +E  E E E   +E  E E E E E E E
|-----------------|----------------|------------------|--------------------|
|-----------------|----------------|------------------|--------------------|
|-----------------|----------------|------------------|--------------------|
|-----------------|----------------|------------------|--------------------|
|-----------------|--------2-------|----------------5-|-(5)----------------|
|-2--0-2-(2)-0-2--|-0-2--0---3-2-3-|-2--0-2-(2)-0-2---|-----0-3p2p0-3p2p0--|


 4/4
  Gtr I
                                                    ~~~~~~~~~~
   Q       +E    Q          +E    Q         +Q     +Q     +Q     +Q
|----------------------------------------|-------------------------------|
|-19------(19)--19---------(19)--19------|-(19)---(19)---(19)------------|
|-21b23===(21)r-21b23======(21)r-21b23===|=(21)---(21)---(21)---(21)r\---|
|----------------------------------------|-------------------------------|
|----------------------------------------|-------------------------------|
|----------------------------------------|-------------------------------|
|
| Gtr II
|           PM               PM              PM        PM--------------|
|  Q        E    E     +E    E    Q          E  Q      E   E  E   E    E
|----------------------------------------|-------------------------------|
|----------------------------------------|-------------------------------|
|----------------------------------------|-------------------------------|
|----------------------------------------|-------------------------------|
|----------------------------------------|-----------------2-------------|
|--2--------0----2-----(2)---0----2------|---0--2------0------3---2----3-|


                                      3/4
  Q      +E   Q         +E   Q         +Q    +Q     +Q
|------------------------------------|-------------------------|
|-7------(7)--7---------(7)--7-------|-(7)---(7)----(7)--------|
|-9b11===(9)r-9b11======(9)r-9b11====|=(9)---(9)----(9)r\------|
|------------------------------------|-------------------------|
|------------------------------------|-------------------------|
|------------------------------------|-------------------------|
|
|         PM             PM                PM
|                                             |-3-|  |--3---|
| Q       E   E     +E   E   E     E   +E  E  E E E  E    E E
|------------------------------------|-------------------------|
|------------------------------------|-------------------------|
|------------------------------------|-------------------------|
|------------------------------------|-------------------------|
|----------------------------------5-|-(5)---------------------|
|-2-------0---2-----(2)--0---2-------|-----0--6p5p3--6p===5p3--|


 4/4
                                                    ~~~~~~~~~~
   Q       +E    Q          +E    Q         +Q     +Q     +Q     +Q
|----------------------------------------|-------------------------------|
|-19------(19)--19---------(19)--19------|-(19)---(19)---(19)------------|
|-21b23===(21)r-21b23======(21)r-21b23===|=(21)---(21)---(21)---(21)r\---|
|----------------------------------------|-------------------------------|
|----------------------------------------|-------------------------------|
|----------------------------------------|-------------------------------|
|
|           PM               PM              PM        PM--------------|
|  Q        E    E     +E    E    Q          E  Q      E   E  E   E    E
|----------------------------------------|-------------------------------|
|----------------------------------------|-------------------------------|
|----------------------------------------|-------------------------------|
|----------------------------------------|-------------------------------|
|----------------------------------------|-----------------2-------------|
|--2--------0----2-----(2)---0----2------|---0--2------0------3---2----3-|


                                      3/4
  Q      +E   Q         +E   Q         +Q    +Q     +Q
|------------------------------------|-------------------------||
|-7------(7)--7---------(7)--7-------|-(7)---(7)----(7)--------||
|-9b11===(9)r-9b11======(9)r-9b11====|=(9)---(9)----(9)r\------||
|------------------------------------|-------------------------||
|------------------------------------|-------------------------||
|------------------------------------|-------------------------||
|
|         PM             PM                PM
|                                             |-3-|  |--3---|
| Q       E   E     +E   E   E     E   +E  E  E E E  E    E E
|------------------------------------|-------------------------||
|------------------------------------|-------------------------||
|------------------------------------|-------------------------||
|------------------------------------|-------------------------||
|----------------------------------5-|-(5)---------------------||
|-2-------0---2-----(2)--0---2-------|-----0--3p2p0--3p===2p0--||


 The End
  F#5E5F#5    N.C.      F#5E5F#5    N.C.
 3/4
  Gtrs I, II
     PM                    PM        TP
  Q  E E Q    H.        Q  E E Q     H.
|-----------|---------|-----------|-<5>----|
|-----------|---------|-----------|-<5>----|
|-----------|---------|-----------|-<5>----|
|-----------|---------|-----------|-<5>----|
|-4--2-4----|---------|-4--2-4----|--------|
|-2--0-2----|---------|-2--0-2----|--------|


  F#5E5F#5    N.C.      F#5E5F#5E5  A#5
     PM                    PM   PM
  Q  E E Q    H.        Q  E Q  E   H.
|-----------|---------|-----------|-------*|
|-----------|---------|-----------|-------*|
|-----------|---------|-----------|-------*|
|-----------|---------|-----------|-3-----*|
|-4--2-4----|---------|-4----4----|-1-----*|
|-2--0-2----|---------|-2--0-2--0-|-------*|



Duration Legend
---------------
W - whole; H - half; Q - quarter; E - 8th; S - 16th; T - 32nd; X - 64th; a - acciaccatura
+ - note tied to previous; . - note dotted; .. - note double dotted
Uncapitalized letters represent notes that are staccato (1/2 duration)
Irregular groupings are notated above the duration line
Duration letters will always appear directly above the note/fret number it represents the
duration for.  Duration letters with no fret number below them represent rests.  Multi-
bar rests are notated in the form Wxn, where n is the number of bars to rest for.  Low
melody durations appear below the staff

Tablature Legend
----------------
 h   - hammer-on
 p   - pull-off
 b   - bend
 pb  - pre-bend
 r   - bend release (if no number after the r, then release immediately)
 /\  - slide into or out of (from/to "nowhere")
 s   - legato slide
 S   - shift slide
 - natural harmonic
[n]  - artificial harmonic
n(n) - tapped harmonic
 ~   - vibrato
 tr  - trill
 T   - tap
 TP  - trem. picking
 PM  - palm muting
\n/  - tremolo bar dip; n = amount to dip
 \n  - tremolo bar down
 n/  - tremolo bar up
/n\  - tremolo bar inverted dip
 =   - hold bend; also acts as connecting device for hammers/pulls
 <> - volume swell (louder/softer)
 x   - on rhythm slash represents muted slash
 o   - on rhythm slash represents single note slash

Misc Legend
-----------
 |  - bar
||  - double bar
||o - repeat start
o|| - repeat end
*|  - double bar (ending)
 :  - bar (freetime)
 $  - Segno
 &  - Coda
Tempo markers -  = BPM(8/16=s8/s16), where s8 = swing 8ths, s16 = swing 16ths
            
Submit corrections

comments powered by Disqus
↑ Back to top | Haunted Tabs for Chasm. Lyrics for acoustic guitar and electric guitar. Tablatures and chords are parodies/interpretations of the original songs. You may use it for private study, scholarship, research or language learning purposes only