» » »

Chasm Tabs (ver.1)

Artists:  A B C D E F G H I J K L M N O P Q R S T U V W X Y Z # 

Chasm Tabs (ver.1)

Haunted
Rating:
5/5 (2 votes)

Hard to play? Try these video lessons and learn fast.
                                           THE HAUNTED - CHASM
                            From "The Haunted"            



For Questions, Comments, Corrections, Requests

Check out The Reaper's Metal Tablature Archive at

.  - palm mute                          /  - slide up to
\  - slide down to                      ~  - vibrato
"  - tremelo picking                    () - ghost note
p  - pull off                           h  - hammer-on 
tr - trill notes                        fb - full bend (1step)
< > - harmonic

The Haunted - Chasm

Tuned 1/2 step down (EbAbDbGbBbEb)

Intro
|-----------|
|-----------|
|-----------|
|----4------|
|-----------|
|----2------|

Riff A
|------------------------------------------------------------------|
|------------------------------------------------------------------|
|------------------------------------------------------------------|
|------------------------------------------------------------------|
|--------------1--------------5------------------------------------|
|-2-02-02-02-0---323--2-02-02---22-6p3-6p3-------------------------|
    .  .  .  .   ...    .  .    ..

|------------------------------------------------------------------|
|------------------------------------------------------------------|
|------------------------------------------------------------------|
|------------------------------------------------------------------|
|--------------1-------------5-------------------------------------|
|-2-02-02-02-0---323-2-02-02---22-3p0-3p0--------------------------|
    .  .  .  .   ...   .  .    ..

On the last time before the verse it ends on:  F6 Eb6 F6 Eb6 A5

Riff B
|------------------------------------------------------------------|
|------------------------------------------------------------------|
|------------------------------------------------------------------|
|------------------------------------------------------------------|
|---------2----1-----5--------------------2----1-----5-4-5-4-4-----|
|-2-0-2-2---32---320---3-2h3p2p0--2-0-2-2---32---320-3-2-3-2-2-----|
    .   .   ..   ...   .            .   .   ..   ...

Riff C
|------------------------------------------------------------------|
|------------------------------------------------------------------|
|------------------------------------------------------------------|
|---------2----1-----5-------------2----1-----32-------------------|
|-2-0-2-2---32---320--323--2-0-2-2---32---320----32----------------|
|------------------------------------------------------------------|
    .   .   ..   ...  ...    .   .   ..   ...

Riff D (Going Down,Last call....)
|------------------------------------------------------------------|
|------------------------------------------------------------------|
|------------------------------------------------------------------|
|-----------------------------------------------10-----------------|
|----7---5---7---5-777-8-11-11-11-----7---5---7--8-888-5-777-------|
|-00---0---0---0-------------------00---0---0------666-3-555-------|
  ..   .   .   .                   ..   .   . 
|------------------------------------------------------------------|
|------------------------------------------------------------------|
|------------------------------------------------------------------|
|------------------------------------------------------------------|
|----7---5---7---5-777-8-11-11-11-----7---5---7--3-5---------------|
|-00---0---0---0-------------------00---0---0----1-3---------------|
  ..   .   .   .                   ..   .   .

Played under both of the solos
|------------------------------------------------------------------|
|------------------------------------------------------------------|
|------------------------------------------------------------------|
|------------------5-----------------------------------------------|
|------------------3-----------------------------------------------|
|-2-232-252-232222----232-252-2323532------------------------------|


Riff E                       
|------------------------------------------------------------------|
|------------------------------------------------------------------|
|------------------------------------------------------------------|The 1st time through he 
|------------------------------------------------------------------|plays this.
|-----8-7----10-7----8-7-----5b-7------8-7----10-7----7-8-7-8-10-8-|
|-000-----00------00-----000-------00------00------00--------------|
  ...     ..      ..     ..  ^    ..      ..      ..
                             bent very lightly

|------------------------------------------------------------------|
|------------------------------------------------------------------|
|------------------------------------------------------------------|This is played the 2nd
|--------------------8---------------------------------------------|and 3rd times around.
|-----8-7----10-7------7-----5b-7-----8-7----10-7----7-8-7-8-10-8--|
|-000-----00------00-----000-------00-----00------00---------------|
  ...     ..      ..     ..       ..     ..      ..

|------------------------------------------------------------------|
|------------------------------------------------------------------|
|------------------------------------------------------------------|He plays this on the
|--------------------8---------------------------------------------|4th time
|-----8-7----10-7------7-----5b-7-----8-7----10-7------4-5-7-9-----|
|-000-----00------00-----000-------00-----00------0000-2-3-5-7-----|
  ...     ..      ..     ..       ..     ..      ....

End on
|---------------<55555>--------------------------------------------|
|------------------------------------------------------------------|
|------------------------------------------------------------------|
|------------------------------------3-----------------------------|
|-4---4--4---4----------4---4--4---4-1-----------------------------|
|-2-0-2--2-0-2----------2-0-2--2-0-2-------------------------------|
    .      .              .      .
            
Hard to play? Try these video lessons and learn fast. | Correct




comments powered by Disqus
↑ Back to top | Tablatures and chords are parodies/interpretations of the original songs. You may use it for private study, scholarship, research or language learning purposes only